Song: Let The Good Times Roll

Band: Cars

Rating: -0 +0 Views: 191



    

																				Good Times Roll - The Cars

Someday I hope to play this on a stage.
This is all my own work so far.
twelvepack@budweiser.com

Opening Riff
e------------------------
b------------------------
g--------------------11--
d---9----------------9---
a------------------------
E--------7-7-7-7---------



    

Main Riff 1
e--------------------------
b--------------------------
g----------------------11--
d---9------------------9---
a--------------------------
E--------7-7-7-7-7---------

Main Riff 2
e---------------------------
b---------------------------
g-----------------------9----
d---7------------------7----
a---------------------------
E--------5-5-5-5-5----------

Bridge
e-------------------------
b-------------------------
g----------------------2--
d----9----7----5-----2----
a----9----7----5-----0----
E----7----5----3----------

Let them lead you..............


Chorus:  Riff1 & Riff2


Riff  3 - use this for last line of chorus
e------------------------------
b------------------------------
g------------------------------
d----9---7--6------------------
a----7---5--4------------------
E------------------------------

Let the good times rolllllllll.......

Close panel

Help Rate This Tab by Voting Up or Down

Vote Up Vote Down
Rating: -0 +0

Other Songs Like This

x

Copyright © 2017