Song: Better Than You

Band: Catch 22

Rating: -1 +1 Views: 119



    

																				Artist:  Catch 22
Song:  Better Than You
Album:  Rules of The Game(Demo)
Tuning:  Standard

Intro X4:
Distortion
e:----3-----8-----7-----------|
B:--11-1--66-6--55-5--3353----|
G:----------------------------|
D:----------------------------|
A:----------------------------|
E:----------------------------|

Intro Part II:
Distortion
e:----------------------------|
B:----------------------------|
G:-5--5--5--2-----------------|
D:-5--5--5--2-----------------|
A:-3--3--3--0-----------------|
E:----------------------------|
Verse 1 x4
Distortion
e:---------------------------|
B:---------------------------|
G:--5555---------------------|
D:--5555-5555-7777-3333------|
A:--3333-5555-7777-3333------|
E:-------3333-5555-1111------|



    

Hold After 4th Verse 1
e:----------------------------|
B:----------------------------|
G:----------------------------|
D:--3-------------------------|
A:--3-------------------------|
E:--1-------------------------|

Chorus: X4
Disortion
e:---------------------------|
B:---------------------------|
G:--5555------5555-----------|
D:--5555-5555-5555-3333------|
A:--3333-5555-3333-3333------|
E:-------3333------1111------|

Outro:
Intro:
e:----3-----8-----7-----------|
B:--11-1--66-6--55-5----------|
G:-------------------5-5-5-0--|
D:-------------------5-5-5-0--|
A:-------------------3-3-3-0--|
E:----------------------------|

Close panel

Help Rate This Tab by Voting Up or Down

Vote Up Vote Down
Rating: -1 +1

Other Songs Like This

x

Copyright © 2019