Song: Mi Ami

Band: Cccp

Rating: -1 +1 Views: 112



    

																				MI AMI?
tabbed by yedduzzo
for any correction yedduzzo@areamk.com

intro
   D 8 9 10 A 5 6 7  F 1 2 3  G 3 4 5
e|-X-X------X-X------X-X------X-X-----|
B|-X-X------X-X------X-X------X-X-----|
G|-X---X----X---X----X---X----X---X---|
D|-X-----X--X-----X--X-----X--X-----X-|
A|-X--------X--------X--------X-------|
E|-X--------X--------X--------X-------|

II guitar
e|------------------------------------------------------------|
B|------------------------------------------------------------|
G|------------------------------------------------------------|
D|-2323>555555>7777752>333233>555552323>555555>777775>7777579-|
A|------------------------------------------------------------|
E|------------------------------------------------------------|



    

verse 1                        verse 2              bridge
e|-8--8----5-5----1-1----3-3--|--------------------|----------------------------|
B|-8--8----5-5----1-1----3-3--|--------------------|----------------------------|
G|-9--9----5-5----2-2----4-4--|--5555--------------|--777799991010101012121212--|
D|-10-10---7-7----3-3----5-5--|--5555777733335555--|--777799991010101012121212--|
A|----------------------------|--3333777733335555--|--555577778-8-8-8-10101010--|
E|----------------------------|------555511113333--|----------------------------|

-verse 1
Un'erezione un'erezione 
Un'erezione un'erezione triste
per un coito molesto
per un coito modesto
per un coito molesto
spermi spermi 
spermi spermi indifferenti
per ingoi indigesti
per ingoi indigesti
per ingoi indigesti

-verse 2
io attendo allucinato
la situazione estrema
un grande sogno nitido
chiedendo alla tua pelle
con dita di barbiere
una amorosa quite
una amorosa quite
sfiorarti come a caso
con aria imbarazzata
atmosfera pesante
elogio alla tensione
tranquillit

Close panel

Help Rate This Tab by Voting Up or Down

Vote Up Vote Down
Rating: -1 +1

Other Songs Like This

x

Copyright © 2019