Song: Dirty Mexican Bass

Band: Cellution

Rating: -1 +1 Views: 105

Intro/Verse
E----------------------------------------------------------
B----------------------------------------------------------
G---------------------------------------------X4-----------
D----------------------------------------------------------
A--5-5-5-5---3-3-3-3--5-5-5-5---3-3-3-3--------------------
E-3--------3---------3--------3---------3------------------

Chorus
E----------------------------------------------------------
B----------------------------------------------------------
G----------------------------------------------X4----------
D----------------------------------------------------------
A-5-5-5-5--3-3-3-3-----------------------------------------
E------------------3-3-3-3---------------------------------



    

REPEAT

Artists
Jonas Meyer-Guitar/Vocals
Mike Beil-Guitar
Mitch Eramo-Bass
Marc Hayden-Drums

Close panel

Help Rate This Tab by Voting Up or Down

Vote Up Vote Down
Rating: -1 +1

Other Songs Like This

x

Copyright © 2019