Song: The Words Best Freind Become Redefined

Band: Chiodos

Rating: -0 +0 Views: 80



    

																				Guitar 1
e-------------------------------------------------------------------------|
B-------------------------------------------------------------------------|
G-------------------------------------------------------------------------|
D-------------------------------------------------------------------------|
A-----------------0h12-0h10-0h10-0h8-0h8-0h7-0h7-0h7-0h8-0h7-0h7-4h7p4h7--|
E--0h12-0h12-0h12---------------------------------------------------------|

e---------------------------------------------------------------------------|
B---------------------------------------------------------------------------|
G---------------------------------------------------------------------------|
D---------------------------------------------------------------------------|
A-----------------0h12-0h10-0h10-0h8-0h8-0h10-0h10-0h10-0h12-0h13-0h13-0h12-|
E--0h12-0h12-0h12-----------------------------------------------------------|

^^^that is played X amount of times (listen to the song)



    

after guitar 1 plays the above riff twice, guitar 2 does this

Guitar2 (play all as eigth notes, up and down picking)
e---------------------------------------------------------------------------------|
B---------------------------------------------------------------------------------|
G--7-7-7-7-7-7-7-7-10-10-10-10-9--------------6-6-6-6-6-6-6-6-10-10-10-10-9-9-9-9-|
D--7-7-7-7-7-7-7-7-10-10-10-10-9-(rest-2,3,4)-6-6-6-6-6-6-6-6-10-10-10-10-9-9-9-9-|
A--5-5-5-5-5-5-5-5--8--8--8--8-7--------------4-4-4-4-4-4-4-4--8--8--8--8-7-7-7-7-|
E---------------------------------------------------------------------------------|
(no rest after the last power chord as in the middle, it just goes back to the bginning 
repeats X amount of times)

you can figure out the rest of the song yourself, most of it are octaves on these notes

e----------------|
B----------------|
G-7-----9-----10-|
D-x-and-x-and--x-|
A-5-----7------8-|
E-x-----x------x-|

Close panel

Help Rate This Tab by Voting Up or Down

Vote Up Vote Down
Rating: -0 +0

Other Songs Like This

x

Copyright © 2017