Song: Jail Guitar Door Bass

Band: Clash
Composed By: Joe Strummer, Mick Jones

Rating: -0 +0 Views: 69



    

																				Intro/Chorus
G-|------------|------------|------------|--------------|
D-|------------|------------|------------|--------------|
A-|-7--7---4-7-|-7--7---4-7-|-7--7---4-7-|-7--7---------|
E-|------5-----|------5-----|------5-----|--------5-----|

Verse
G-|--------------------|-------------------|
D-|--------------------|-------------------|
A-|-7777---------------|-7777--------96--7-|
E-|------7777-55555555-|------4444-77---7--|

Chorus 
G-|------------|------------|------------|--------------|
D-|------------|------------|------------|--------------|
A-|-7--7---4-7-|-7--7---4-7-|-7--7---4-7-|-7--7---------|
E-|------5-----|------5-----|------5-----|--------5-----|



    

2:05-2:22 is break on bass come back in at 2:23 on drum build up

Bridge (2:23)          x3
G-|-------------------|
D-|-------------------|
A-|-77777777----------|
E-|----------55555555-|

Outro (2:23)
G-|--------------------------|
D-|---66-77-88---------------|
A-|-77------------44-55-66---|
E-|-------------55-----------|


If you don't think it's perfect then go to hell

View Just Lyrics...

Let me tell you 'bout Wayne and his deals of cocaine
A little more every day
Holding for a friend till the band do well
Then the D.E.A. locked him away

Clang clang, go the jail guitar doors
Bang bang, go the boots on the floor
Cry cry, for your lonely mother's son
Clang clang, go the jail guitar doors

An' I'll tell you 'bout Pete, didn't want no fame
Gave all his money away
"Well there's something wrong, it'll be good for you, son"
And so they certified him insane

And then there's Keith, waiting for trial
Twenty-five thousand bail
If he goes down you won't hear his sound
But his friends carry on anyway
Fuck 'em!
Jail guitar doors
Fifty four/forty six was my number
Jail guitar doors
Right now someone else has that number

View Albums that This Song Appears On...

  • The Clash

    Genre: Pop/Rock Label: Epic / Legacy Album Duration: 35:14

    Release Date: 1977

    Moods: Angry, Brash, Cathartic, Exciting, Fierce, Fiery, Gutsy, Passionate, Rebellious, Volatile, Confrontational, Cynical/Sarcastic, Earnest, Energetic, Exuberant, Intense, Raucous, Reckless, Rousing, Snide

    Styles: British Punk, Hard Rock, Punk, Punk/New Wave, Rock & Roll

    Themes: Revolutionary, Empowering, Motivation, TGIF

  • Clash on Broadway

    Genre: Pop/Rock Label: Columbia Album Duration: 03:35:22

    Release Date: November 19, 1991

    Moods: Brash, Cathartic, Gutsy, Intense, Passionate, Rebellious, Confrontational, Cynical/Sarcastic, Energetic, Rousing, Volatile, Witty, Angry, Earnest, Exciting, Exuberant, Fiery, Freewheeling, Rambunctious, Raucous, Reckless, Rowdy, Snide

    Styles: British Punk, Hard Rock, Punk, Punk/New Wave, Rock & Roll, Dance-Rock

  • U.S.A. 1979

    Label: Redline Records

    Release Date: 1992

Close panel

Help Rate This Tab by Voting Up or Down

Vote Up Vote Down
Rating: -0 +0

Other Songs Like This

x

Copyright © 2017