Song: What If

Band: Cog
Composed By: Flynn Gower

Rating: -0 +0 Views: 156



    

																				----------------------------------------------------------------------------
			     WHAT IF - Cog
----------------------------------------------------------------------------
Tabbed by: Corbin Nesa
Email: c_nesa@hotmail.com

Tuning: Drop C
*I actually started tabbing this song out in Drop D but the outro and bridge
 have some low power chords which could only be played in Drop C. So you can
 still easily play the other parts in Standard/Drop D*

Well here it is. Couldn't believe there was not one tab of this song on the
net, so i thought i may aswell give it a go.
I don't think it's 100% correct, but it's pretty close.
Let me know what you think!



    

Intro [0:00 - 0:34]
D|--------------------------------------------------------------------| X12
A|--------------------------------------------------------------------|
F|-------------2---------------2---------------2---------------2------|
C|----------3-----3---------3-----3---------3-----3---------3-----3---|
G|---5---------------5---------------5---------------5----------------|
C|--------------------------------------------------------------------|

On the 12th time, the end part is played like this
D|-----------0-|
A|-----3-------| <- Let ring
F|-----2-----2-|
C|--3----------|
G|-------------|
C|-------------|


[0:16 - 0:34]
*This is actually played by the bassist but I

View Albums that This Song Appears On...

  • What If

    Genre: Pop/Rock Label: Universal Distribution Song Duration on Album: 4:22 Album Duration: 9:59

    Release Date: 2007

  • Sharing Space

    Genre: Pop/Rock Label: Difrnt Music Song Duration on Album: 4:18 Album Duration: 01:11:59

    Release Date: April 14, 2008

    Styles: Heavy Metal

Close panel

Help Rate This Tab by Voting Up or Down

Vote Up Vote Down
Rating: -0 +0

Other Songs Like This

x

Copyright © 2017