Song: X And Y Bass

Band: Coldplay

Rating: -1 +1 Views: 83



    

																				
fd0
X and Y from the album X and Y.

BASS STARTS AT 0:37VERSE(x4)
G|------------11-12------------------11-12-----------------|
D|---------14-------12------------14-------11--------------|
A|---------------------14---------------12-----------------|
E|---14-14--------------------14---------------------------|



    

REFRAIN(x4)
G|---------------------------------------------------------------------|
D|---------------------------------------------------------------------|
A|----11-11-11-11-11-11-11-11-10-10-10-10-10-10-10-10------------------|
E|---------------------------------------------------------------------|

CHORUS(x2)
G|---------------------------------------------------------------------|
D|------------------------------------2-2-2-2-2-2-2-2-2-2-2-2-2-2-2-2--|
A|--5-5-5-5-5-5-5-5--3-3-3-3-3-3-3-3-----------------------------------|
E|---------------------------------------------------------------------|

BRIDGE(x2)
G|--------------------------------------------------------------|
D|--------------------------------------------------------------|
A|-----10-10-10-10-10-10-10-10-11-11-11-11-11-11-11-11----------|
E|--------------------------------------------------------------|

VERSE(x2)
CHORUS(x4)
BRIDGE(x4)

Close panel

Help Rate This Tab by Voting Up or Down

Vote Up Vote Down
Rating: -1 +1

Other Songs Like This

x

Copyright © 2019