Song: Viva La Vida Bass

Band: Coldplay

Rating: -1 +1 Views: 134

-------------------------------------------------------------------------------
			     Viva La Vida - Coldplay
-------------------------------------------------------------------------------

Tabbed By : RDokz
e-mail: Rdochz@hotmail.co.uk



    

Tuning:Standard

Verse 

G|---------------------------------------------------------------------------|
D|----------------------------------------------------6-6-6-6-3-3-33-3-------|
A|-4-4-4-4-6-6-66-6------------------4-4-4-4-6-6-66-6------------------------|
E|------------------4-4-4-4-1-1-11-1-----------------------------------------|



    



Chorus - You can play the same as the verse, but I've added a few fills. 

G|-------------------------5-55-6-6------------------------------------------|
D|------------------6-6-6-6----------------------------------------3-3-------|
A|-4-4-4-4-6-6-66-6------------------4-4-4-4-6-6-66-6------------------------|
E|----------------------------------------------------4-4-4-4-1-11-----------|



Feel free to add anything or say that it's completely wrong


| /  slide up
| \  slide down
| h  hammer-on
| p  pull-off
| ~  vibrato
| +  harmonic
| x  Mute note
===============================================================================

Close panel

Help Rate This Tab by Voting Up or Down

Vote Up Vote Down
Rating: -1 +1

Other Songs Like This

x

Copyright © 2018