Song: Under The Umbrella

Band: Company Of Thieves

Rating: -1 +1 Views: 57

Company Of Thieves- Under The Umbrella Outro

Haven't figured out the solo yet but I know most of the outro. Enjoy.



    


Chords:

         A   G/D   F#/D   Aaug
   e ----0---------------(1)-----------------------------------------------|
   b ----2----------------2------------------------------------------------|
   G ----2----2-----2-----2------------------------------------------------|
   D ----2----0-----0-----3------------------------------------------------|
   A ----0----x-----x-----4------------------------------------------------|
   E ---------3-----2------------------------------------------------------|



    

Main Riff:


   e ----------------------------------------------------------------------|
   b -----------------------------------------------------------------5----|
   G -2-2---------2-4--4/5--4-2-4-2-----2-2--------2-4--4/5--4-2--4/6------|
   D -2-2-----/4------------------------0-0-----/4-------------------------|
   A -0-0-------------------------------x-x--------------------------------|
   E -----------------------------------3-3--------------------------------|


   e ----------------------------------------------------------------------|
   b ----------------------------------------------------------------------|
   G -2-2---------2-4--4/5--4-2-4-2--------------2---2h4--2----------------|
   D -0-0-----/4--------------------4-2------3----------------3------------|
   A -x-x--------------------------------4---------------------------------|
   E -2-2------------------------------------------------------------------|

(play with wah-wah for this)
   e ----------------------------------------------------------------------|
   b ----------------------------------------------------------------------|
   G -2-2--------14--16--16b17r16p14--16p14----2-2-------14--16--16b17-----|
   D -2-2----/16-------------------------------0-0---/16-------------------|
   A -0-0--------------------------------------x-x-------------------------|
   E ------------------------------------------3-3-------------------------|


   e ----------------------------------------------------------------------|
   b ----------------17----------------------------------------------------|
   G --16p14--16b18-------2-2-------14--16--16b17r16p14--16p14-------------|
   D ---------------------0-0---/16----------------------------16p14-------|
   A ---------------------x-x----------------------------------------------|
   E ---------------------2-2----------------------------------------------|

   e ----------------------------------------------------------------------|
   b ----------------------------------------------------------------------|
   G ----------14---14h16--14----------------------------------------------|
   D ------15------------------15--14~-------------------------------------|
   A --16------------------------------------------------------------------|
   E ----------------------------------------------------------------------|

                na na na na na na na              na na na na na na na
   e ------0---------------0------------------0---------------0------------|
   b ----------------------------------------------------------------------|
   G ---2---------------2------------------2---------------2---------------|
   D ----------------------------------------------------------------------|
   A -0---------------0----------------------------------------------------|
   E ------------------------------------3---------------3-----------------|

                na na na na na na na   oh
   e ------0---------------0-----------------------------------------------|
   b ----------------------------------------------------------------------|
   G ---2---------------2--------------------2h4---2h4--2------------------|
   D -------------------------------------3-----------------3--------------|
   A ----------------------------------4-----------------------------------|
   E -2---------------2----------------------------------------------------|

play the 2 measures above 3 times, then

                na na na na na na na            na na na na na na na
   e ----------------------------------------------------------------------|
   b ----------------------------------------------------------------------|
   G -2-2------------------------------------------------------------------|
   D -2-2------------------------------------------------------------------|
   A -0-0------------------------------------------------------------------|
   E ----------------------------------------------------------------------|

             na na na na na na na   oh
   e ----------------------------------------------------------------------|
   b ----------------------------------------------------------------------|
   G ----------------------------------------2~----------------------------|
   D ------------------------------------3---------------------------------|
   A --------------------------------4-------------------------------------|
   E --2-2-2-2-2-2-2-2-----------------------------------------------------|
       + + + + + + + +

(solo)

ending after solo:

   e ----------------------------------------------------------------------|
   b ------------------------------------------------------------------5---|
   G -2-2---------2--4--4/5--4-2-4-2----2-2--------2--4--4/5--4-2--4/6-----|
   D -2-2-----/4------------------------0-0----/4--------------------------|
   A -0-0-------------------------------x-x--------------------------------|
   E -----------------------------------3-3--------------------------------|


   e ----------------------------------------------------------------------|
   b ----------------------------------------------------------------------|
   G -2-2---------2--4--5p4p2-4p2----2b4r2---------2-----------------------|
   D -0-0-----/4------------------4-------------3--------------------------|
   A -x-x------------------------------------4-----------------------------|
   E -2-2------------------------------------------------------------------|


   e ----------------------------------------------------------------------|
   b ----------------------------------------------------------------5b7---|
   G -2-2---------2--4--4/5---4\2--4--2---2-2--------2--4--4/5--4\2--------|
   D -2-2-----/4--2--4--4/5---4\2--4--2---0-0----/4--2--4--4/5--4\2--------|
   A -0-0---------------------------------x-x------------------------------|
   E -------------------------------------3-3------------------------------|


   e ----------------------------------------------------------------------|
   b ----------------------------------------------------------------------|
   G -2-2---------2--4--4/5---4\2--4--2----------------14------------------|
   D -0-0-----/4--2--4--4/5---4\2--4--2--4-2-------15----------------------|
   A -x-x-------------------------------------/16--------------------------|
   E -2-2------------------------------------------------------------------|

That's it. If you want to see the guitar solo, see my other Under The
Umbrella tab

Key:

   h-hammer on
   p-pull off
   r-release
   ~-hold note
   +-palm mute
   /-slide up
   b-bend
   x-muted string

The End!

Close panel

Help Rate This Tab by Voting Up or Down

Vote Up Vote Down
Rating: -1 +1

Other Songs Like This

x

Copyright © 2019