Song: Say Hi Bass

Band: Couple
Composed By: Alan Jay Lerner, Frederick Loewe

Rating: -0 +0 Views: 168



    

																				ARTIST - COUPLE
SONG   - SAY HI
TUNING - STANDARD(EADG)
TAB BY - mattmuse41





    




i never fell..   
G|-------------|------------|-----------|-----------|
D|-------------|------------|--------2--|--0-2-4-2--|
A|----0-2-0----|------0-2---|--0-2-3----|-----------|
E|--3----------|--0-3-------|-----------|-----------|


but somehow i just..
G|-------------|------------|-----------|-----------|
D|-------------|------------|--------2--|--0-2-4-2--|  
A|----0-2-0----|------0-2---|--0-2-3----|-----------|
E|--3----------|--0-3-------|-----------|-----------|






so how should.. 
G|-------------|------------|-----------|-----------|
D|------4--2---|------4--2--|-----------|-----------|
A|--2----------|--2---------|------2--0-|-----2--0--|
E|-------------|------------|--0--------|--0--------|


and tell you how..
G|-------------|------------|-----------------------|
D|-------------|------------|-----------------------|
A|--0---7--5---|--0---7--5--|--5-5-5-5-5-3-2-0------|
E|-------------|------------|-----------------------|







i think i have..
G|-------------|------------|-----------|-----------|
D|-------------|------------|--------2--|--0-2-4-2--|
A|----0-2-0----|------0-2---|--0-2-3----|-----------|
E|--3----------|--0-3-------|-----------|-----------|


but seeing you with..
G|-------------|------------|-----------|-----------|
D|-------------|------------|--------2--|--0-2-4-2--|
A|----0-2-0----|------0-2---|--0-2-3----|-----------|
E|--3----------|--0-3-------|-----------|-----------|







so how should..
G|-------------|------------|-----------|-----------|
D|------4--2---|------4--2--|-----------|-----------|
A|--2----------|--2---------|------2--0-|-----2--0--|
E|-------------|------------|--0--------|--0--------|

and tell you how..
G|-------------|------------|-----------------------|
D|-------------|------------|-----------------------|
A|--0---7--5---|--0---7--5--|--5-5-5-5-5-3-2-0------|
E|-------------|------------|-----------------------|







wo wo wo.... (no singing)
G|--------------------------|-----------------------|
D|--------------------------|-----------------------|
A|-----0-2-0--------0-2-0---|-------0-2---------0-2-|
E|--3------------3----------|--0-3---------0-3------|
                                                     \
                                                       X2
(continued)                                          / 
G|--------------------------|-----------------------|
D|---------2-----------2----|--0-2-4-2----0-2-4-2---|
A|--0-2-3-------0-2-3-------|-----------------------|
E|--------------------------|-----------------------|







so how should..
G|-------------|------------|-----------|-----------|
D|------4--2---|------4--2--|-----------|-----------|
A|--2----------|--2---------|------2--0-|-----2--0--|
E|-------------|------------|--0--------|--0--------|

and tell you how..
G|-------------|------------|-----------------------|
D|-------------|------------|-----------------------|
A|--0---7--5---|--0---7--5--|--5-5-5-5-5-3-2-0------|
E|-------------|------------|-----------------------|






say hi hi..
G|-------------|------------|-----------|-----------|
D|-------------|------------|--------2--|--2--4-----|  X3
A|----0-2-0----|------0-2---|--0-2-3----|-----------|
E|--3----------|--0-3-------|-----------|-----------|


say hi hi..
G|-------------|------------|-----------|-----------|
D|-------------|------------|--------2--|--2--4-----|
A|----0-2-0----|------0-2---|--0-2-3----|-----------|
E|--3----------|--0-3-------|-----------|-----------|


(continued)
G|------------|-------------|------------|
D|--2--4------|--2--4-------|------------|
A|------------|-------------|---2-0------|
E|------------|-------------|--------3~--|



FINISH.......




Lyrics SAY HI

I've never fell for anyone
I never needed to
But somehow I just find myself
In need of someone like you



So how should I go up to you?
And tell you how I needed you


I think I have to help myself
Or else I'd be a fool
But seeing you with someone else
Just breaks my heart in two



So how should I go up to you?
And tell you how I needed you


Bridge: wo wo wo wo wo wo


So how should I go up to you?
And tell you how I needed you
Say Haiyaiyaiyaiyaiyaiyaiyaiya. Oh Oh. X3
Say Haiyaiyaiyaiyaiyaiyaiyaiya. Oh Oh. Oh Oh. Oh     Oh.     
Wo!

View Albums that This Song Appears On...

  • Top of the Pop

    Label: 3D

    Release Date: January 22, 2007

Close panel

Help Rate This Tab by Voting Up or Down

Vote Up Vote Down
Rating: -0 +0

Other Songs Like This

x

Copyright © 2017