Song: Death Of A Strawberry

Band: Dance Gavin Dance
Composed By: Janick Gers, Steve Harris

Rating: -0 +0 Views: 129

Death of a Strawberry-Dance Gavin Dance
Instant Gratification
Rythym Tab




    

(/) Slide Up  (\) Slide Down  (h) Hammer On  (p) Pull Off  (b) Bend (r) Release (v) Vibrato

intro

E|--7-----9---11--7-----9----|
B|--9-----11--12--9-----11---|
G|--9-----11--13--9-----11---|
D|--9-----11--13--9-----11---|
A|--7-----9---11--7-----9----|
E|----7-------------7--------|



    

transition

E|--12--9---11--14----------------------------------------------|
B|--13--11--12--16----------------------------------------------|
G|--14--11--13--16----------------------------------------------|
D|--14--11--13--16----------------------------------------------|
A|--12--9---11--14-- ( for the second chord i do (x-9-11-11-9-9-|instead)
E|--_-----------------------------------------------------------|

HEY!
E|--12--7--|
B|--14--9--|
G|--14--9--|
D|--14--9--|
A|--12--7--|
E|---------|

the funky part

E|--11------11--2--7-----------4--5--7--|
B|--12--16--13--4--9--9--6--8--4--5--9--|
G|--13--15--13--4--9--9--6--8--4--6--9--|
D|--13--13--13--4--9--9--6--8--6--7--9--|
A|--11------11--2--7-----------6--7--7--|
E|-----------------------------4--5-----|

distortion version

E|---------------------------|
B|-----16--------------------|
G|--13------13--4------------|
D|-----13---------2--6--7----|
A|--11------11--2--2--6--7---|
E|----------------0--4--5----|

do this a couple times with a choppy pattern

E|-----------|
B|-----------|
G|--6-----9--|
D|--6--7--9--|
A|--4--7--7--|
E|-----5-----|

repeat everything above then outro:

E|---------------|
B|---------------|
G|---------------|
D|--7--4--6--9---|
A|--7--4--6--9---|
E|--5--2--4--7---|

View Albums that This Song Appears On...

  • Instant Gratification

    Label: Rise Records

Close panel

Help Rate This Tab by Voting Up or Down

Vote Up Vote Down
Rating: -0 +0

Other Songs Like This

x

Copyright © 2017