Song: Tales From The Crypt

Band: Danny Elfman
Composed By: Danny Elfman

Rating: -1 +1 Views: 125



    

																				-------------------------------------------------------------------------------
			     Tales From The Crypt  - Danny Elfman
-------------------------------------------------------------------------------
Tabbed by:Izzy Marmolejo 
Email: cobracarg@gmail.com

Tuning: Standard

e
B

G

D

A

E




    

|---------------------------------------------------------------------------|
|---------------------------------------------------------------------------|
|--------------------4---3--------------------------------------------------|
|----------4--7-------------4----------------------7------------------------|
|------6------------------------6----------6--9-----------------------------|
|-------------------------------------7-6-------------7---------------------|

|---------------------------------------------------------------------------|
|---------------------------------------------------------------------------|
|---------------------------------------------------------------------------|
|-------------------6--9-8--6-----------------------------------------------|
|--------5-8--9-----------------9-8--6--5--6---5-4-5------------------------|
|----6----------------------------------------------------------------------|

|---------------------------------------------------------------------------|
|---------------------------------------------------------------------------|
|---------------------------------------------------------------------------|
|---------------------------------------------------------------------------|
|---------------------------------------------------------------------------|
|---2-4-6--7---7-7--6-6-7-7-6-6--7-7-6-6-4-4-3------------------------------|

|---------------------------------------------------------------------------|
|---------------------------------------------------------------------------|
|--------------------6--5---------------------------------------------------|
|----------6--9-------------6----------------------9------------------------|
|------8------------------------8----------8--11----------------------------|
|-------------------------------------9-8-------------9---------------------|

|---------------------------------------------------------------------------|
|---------------------------------------------------------------------------|
|---------------------------------------------------------------------------|
|---------------------8--11-10--8-------------------------------------------|
|--------7-10--11-------------------11-10--8--7--8---7-6-7-8----------------|
|----8----------------------------------------------------------------------|

|---------------------------------------------------------------------------|
|---------------------------------------------------------------------------|
|---------------------------------------------------------------------------|
|----------------6-5----(5)-------6-----------------------------------------|
|------8-6-9----------------------------------------------------------------|
|---------------------------------------------------------------------------|

Listen to the song for timing...

View Albums that This Song Appears On...

  • Original Music from "Tales from the Crypt"

    Genre: Stage & Screen Label: Big Screen Music / Warner Bros. Song Duration on Album: 2:27 Album Duration: 46:39

    Release Date: 1992

    Styles: Soundtracks, TV Soundtracks, Film Score

Close panel

Help Rate This Tab by Voting Up or Down

Vote Up Vote Down
Rating: -1 +1

Other Songs Like This

x

Copyright © 2019