Song: Is There A Place

Band: Danyo Cummings

Rating: -0 +0 Views: 99



    

																				Song: Is There A Place
Artist: Danyo Cummings
Standard Tuning
Capo 5th fret
3.16.07
Tabbed by: Oliver Liscano
http://www.myspace.com/olilis

This version is from his live acoustic performance. You can watch it here:
http://www.youtube.com/watch?v=BS5tVyu_jc0
This song requires a capo on the 5th fret. Riffs 1 & 2 alternate throughout the song;
vary slightly at times.

             tap
Riff 1       ^
e------------x--------------------x--------------------x---------|
B----------0-x-1p0--------------0-x-1p0--------------0-x-1p0-----|
G-------2----x------0--------2----x------0--------0----x-----0---|
D----2-------x------------3-------x------------2-------x---------|
A-0----------x---------3----------x---------3----------x---------|
E------------x--------------------x--------------------x---------|



    

e----------0-x---------------------------------------------------|
B-3----------x-3-------------------------------------------------|
G----0-------x---------------------------------------------------|
D-------0----x---------------------------------------------------|
A------------x---------------------------------------------------|
E------------x---------------------------------------------------|

Riff 2
e------------x--------------------x--------------------x---------|
B-1--------0-x-1p0-----1--------0-x-1p0-----1--------0-x-1p0-----|
G-------2----x------0--------2----x------0--------0----x-----0---|
D----2-------x------------3-------x------------2-------x---------|
A-0----------x---------3----------x---------3----------x---------|
E------------x--------------------x--------------------x---------|

e----------0-x---------------------------------------------------|
B-3----------x-3-------------------------------------------------|
G----0-------x---------------------------------------------------|
D-------0----x---------------------------------------------------|
A------------x---------------------------------------------------|
E------------x---------------------------------------------------|

Bridge
e----------3-x-0------------3-x-1------------3-x--------1-x-0-----|
B------------x----------------x----------------x--3--3----x-------|
G-------2----x-----------2----x-----------0----x----------x-------|
D----2-------x--------3-------x--------2-------x----------x-------|
A-0----------x-----3----------x-----3----------x----------x-------|
E------------x----------------x----------------x----------x-------|

e----------3-x-0------------3-x-1------------3-x-0---3p1p0--------|
B------------x----------------x----------------x------------3p1p0-|
G-------2----x-----------2----x-----------0----x------------------|
D----2-------x--------3-------x--------2-------x------------------|
A-0----------x-----3----------x-----3----------x------------------|
E------------x----------------x----------------x------------------|

e-----x-------x-------x------------------------------------------|
B-1---x---1---x---1---x--1--3------------------------------------|
G-2---x---2---x---0---x-----0------------------------------------|
D-2---x---3---x---2---x-----2------------------------------------|
A-0---x---3---x---3---x-----3------------------------------------|
E-----x-------x-------x------------------------------------------|

e-----x---------x-------x------------------------------------------|
B-1---x--0--1---x---1---x--1--3------------------------------------|
G-2---x-----2---x---0---x-----0------------------------------------|
D-2---x-----3---x---2---x-----2------------------------------------|
A-0---x-----3---x---3---x-----3------------------------------------|
E-----x---------x-------x------------------------------------------|

e----x--x------x--x------x--x----------------------------------------|
B-1--x--x---1--x--x---1--x--x--1--3----------------------------------|
G-2--x--x---2--x--x---0--x--x-----0----------------------------------|
D-2--x--x---3--x--x---2--x--x-----2----------------------------------|
A-0--x--x---3--x--x---3--x--x-----3----------------------------------|
E----x--x------x--x------x--x----------------------------------------|

e----x--x------x--x------x--x----------------------------------------|
B-1--x--x---1--x--x---1--x--x---3------------------------------------|
G-2--x--x---2--x--x---0--x--x---0------------------------------------|
D-2--x--x---3--x--x---2--x--x---2------------------------------------|
A-0--x--x---3--x--x---3--x--x---3-----0------------------------------|
E----x--x------x--x------x--x----------------------------------------|

Close panel

Help Rate This Tab by Voting Up or Down

Vote Up Vote Down
Rating: -0 +0

Other Songs Like This

x

Copyright © 2017