Song: This Old Wound

Band: Dashboard Confessional
Composed By: Michael Stipe, William Thomas Berry

Rating: -1 +1 Views: 77



    

																				Hello everybody, It's not so easy to find a tab for this song,
So I thought I'd just make a refined version for ya'll. I built
This tab off of a bunch of stuff I got off of Dashtabs.com, It's 
pretty damned accurate, and if you wonder why I said to tune the
guitar half a step flat, even though It uses a capo, It's because
Our Friend Chris Carrabba tunes it that way! You can keep it 
standard and just put the capo on 3 if you want!!

Tuning 1/2 Step flat (EbAbDbGbBbeb)
Capo 4*
*all numbers are relative to capo, duh!

Intro
eb|---------|---------|---------|------2--|---------|---------|
Bb|-------3-|-------3-|-------3-|-------3-|-------3-|-------3-|
Gb|-----0---|-----0---|-----0---|-----0---|-----0---|-----0---|
Db|---0-----|---0-----|---0-----|---0-----|---0-----|---0-----|
Ab|---------|---------|---------|---------|---------|---------|
Eb|-3-------|-0-------|-1-------|-3-------|-0-------|-1-------|



    

eb|-------3-|---------|---------|------2--|---------|---------|
Bb|---------|-------3-|-------3-|-------3-|-------3-|-------3-|
Gb|-----0---|-----0---|-----0---|-----0---|-----0---|-----0---|
Db|---0-----|---0-----|---0-----|---0-----|---0-----|---0-----|
Ab|---------|---------|---------|---------|---------|---------|
Eb|-3-------|-0-------|-1-------|-3-------|-0-------|-1-------|

Verses

eb|---------|---------|---------|-------3-|---------|---------|
Bb|-------3-|-------3-|-------3-|---------|-------3-|-------3-|
Gb|-----0---|-----0---|-----0---|-----0---|-----0---|-----0---|
Db|---0-----|---0-----|---0-----|---0-----|---0-----|---0-----|
Ab|---------|---------|---------|---------|---------|---------|
Eb|-3-------|-0-------|-1-------|-3-------|-0-------|-1-------|

Pre-Chorus            Chorus                Bridge

eb|--------------|    eb|--3-----0-----|    eb|------------|
Bb|--------------|    Bb|--0--0--5--0--|    Bb|--0-----0---|
Gb|--0-----------|    Gb|--0--0--0--0--|    Gb|--0--2--0---|
Db|--0--0--0--0--|    Db|--0--2--4--2--|    Db|--2--3--0---|
Ab|--2--0--5--0--|    Ab|--2--3--5--3--|    Ab|--2--3--2---|
Eb|--3--5--7--2--|    Eb|--3-----------|    Eb|--0--1--3---|

Here are the Lyrics

Verse 1

I

View Albums that This Song Appears On...

  • A Mark, A Mission, A Brand, A Scar

    Genre: Pop/Rock Label: Jvc Victor Song Duration on Album: 4:00 Album Duration: 50:54

    Release Date: August 12, 2003

    Moods: Exuberant, Sentimental, Earnest, Passionate, Dramatic, Gentle, Reflective, Rousing, Aggressive, Bittersweet, Melancholy, Refined, Summery, Tense/Anxious, Angst-Ridden, Romantic, Searching, Self-Conscious, Urgent, Warm, Wistful, Brooding, Somber, Cathartic, Plaintive

    Styles: Alternative/Indie Rock, Emo-Pop, Alternative Singer/Songwriter, Indie Rock

    Themes: Introspection, Long Walk, Heartache, Reflection, Loss/Grief

Close panel

Help Rate This Tab by Voting Up or Down

Vote Up Vote Down
Rating: -1 +1

Other Songs Like This

x

Copyright © 2018