Song: Lets Lynch The Landlord

Band: Dead Kennedys
Composed By: Dead Kennedys, Jello Biafra

Rating: -0 +0 Views: 73



    

																				Let's Lynch the Landlord
Artist: Dead Kennedys
Album: Fresh Fruit, Rotting Vegetables
Tuning: Standard
Tabber: alifly21

Verse/Main Riff (play 2 times for the intro)

|---------------------------|
|-2-2-0-0-2-2--2---4-2------|
|-3-3-1-1-3-3--2---4-2------|
|-4-4-2-2-4-4----4-----4-2--|
|-4-4-2-2-4-4---------------|
|-2-2-0-0-2-2---------------|



    

Chorus
|------------------------------------------------------------|
|------------------2-2-0-0-2-2--2---4-2----------------------|
|------------------3-3-1-1-3-3--2---4-2----------------------|
|-9-9-9-9-7-7-7-7--4-4-2-2-4-4----4----4-2---9-9-9-9-7-7-7-7-|
|-9-9-9-9-7-7-7-7--4-4-2-2-4-4---------------9-9-9-9-7-7-7-7-|
|-7-7-7-7-5-5-5-5--2-2-0-0-2-2---------------7-7-7-7-5-5-5-5-|

 ------------------------------------|
 ------------------------------------|
 ------------------------------------|	end with main riff
 -11-11-11-11-11-11-11-11--11-11-9-7-|      then play verse
 -11-11-11-11-11-11-11-11--11-11-9-7-|
 --9--9--9--9--9--9--9--9---9--9-7-5-|

Solo	Guitar 1
|-----------------------------------------------------------------------|
|-----------------------------------------------------------------------|
|--------------9-8---------9-8-------------------------------11-10------|
|----7/9--9-7------9-9

View Just Lyrics...

The Landlord's here to visit
They're blasting disco down below
Says, "I'm doubling up the rent
Cause the building's condemned
You're gonna help me buy City Hall"

But we can, you know we can
But we can, you know we can
Let's lynch the landlord man

I tell them 'turn on the water'
I tell 'em 'turn on the heat'
Tells me 'All you ever do is complain'
Then they search the place when I'm not here

But we can, you know we can
Let's lynch the landlord
Let's lynch the landlord
Let's lynch the landlord man

There's rats chewin' up the kitchen
Roaches up to my knees
Turn the oven on, it smells like Dachau, yeah
Til the rain pours through the ceiling

But we can, you know we can
Let's lynch the landlord man

View Albums that This Song Appears On...

  • Fresh Fruit for Rotting Vegetables

    Genre: Pop/Rock Label: Cherry Red Album Duration: 32:55

    Release Date: 1980

    Moods: Acerbic, Aggressive, Angry, Fierce, Manic, Snide, Visceral, Bitter, Confrontational, Cynical/Sarcastic, Harsh, Irreverent, Urgent, Angst-Ridden, Brash, Energetic, Fiery, Humorous, Intense, Outrageous, Provocative, Raucous, Rebellious, Rousing, Tense/Anxious, Uncompromising, Witty, Hostile, Volatile

    Styles: American Punk, American Underground, Anarchist Punk, Hardcore Punk

    Themes: Scary Music, Empowering, Motivation, Revolutionary

Close panel

Help Rate This Tab by Voting Up or Down

Vote Up Vote Down
Rating: -0 +0

Other Songs Like This

x

Copyright © 2017