Song: Black Sun

Band: Death Cab For Cutie
Composed By: Ben Gibbard, Chris Walla, Jason McGerr, Nicholas Harmer

Rating: -0 +0 Views: 196

-------------------------------------------------------------------------------
                             Black Sun-- Death Cab For Cutie
-------------------------------------------------------------------------------

Tuning: Standard, EADGBe



    

Tabbed By: Tomas Guitar https://www.youtube.com/channel/UCgP4u22w-GtPllpwhwDTzeA

Watch Tomas Guitar's video: https://www.youtube.com/watch?v=UBn-feL6ouQ




    


Intro/Verse

e||---------------------------------|
B||---------------------------------|
G||-4---4---4---4---2---2---2---2---|
D||---4---4---4---4---4---4---4---4-|
A||---------------------------------|
E||---------------------------------|

e||--------------------------------|
B||-----------------5---5---5---5/-|
G||--------------------------------|
D||-2---2---2---2-----2---2---2----|
A||---5---5---5---5----------------|
E||--------------------------------|

e||---------------------------------|
B||---------------------------------|
G||-4---4---4---4---2---2---2---2---|
D||---4---4---4---4---4---4---4---4-|
A||---------------------------------|
E||---------------------------------|

e||--------------------------------|
B||--------------------------------|
G||-----------------4---4---4---2--|
D||-2---2---2---2------------------|
A||---5---5---5---5---2---2---2----|
E||--------------------------------| 

e||---------------------------------|
B||---------------------------------|
G||-4---4---4---4---2---2---2---2---|
D||---4---4---4---4---4---4---4---4-|
A||---------------------------------|
E||---------------------------------|

e||--------------------------------|
B||-----------------5---5---5---5/-|
G||--------------------------------|
D||-2---2---2---2-----2---2---2----|
A||---5---5---5---5----------------|
E||--------------------------------|

e||---------------------------------|
B||---------------------------------|
G||-4---4---4---4---2---2---2---2---|
D||---4---4---4---4---4---4---4---4-|
A||---------------------------------|
E||---------------------------------|

e||--------------------------------|
B||--------------------------------|
G||-----------------4---4---4---2--|
D||-2---2---2---2------------------|
A||---5---5---5---5---2---2---2----|
E||--------------------------------| 

e||--------------------------------|
B||-----------------5---5---5---5/-|
G||--------------------------------|
D||-2---2---2---2-----2---2---2----|
A||---5---5---5---5----------------|
E||--------------------------------|

e||---------------------------------|
B||---------------------------------|
G||-4---4---4---4---2---2---2---2---|
D||---4---4---4---4---4---4---4---4-|
A||---------------------------------|
E||---------------------------------|

e||---------------------------------|
B||---------------------------------|
G||-4---4---4---4---2---2---2---2---|
D||---4---4---4---4---4---4---4---4-|
A||---------------------------------|
E||---------------------------------|

e||-----------------------------2--|
B||--------------------------------|
G||-----------------4---2---4------|
D||-2---2---2---2------------------|
A||---5---5---5---5---2---2---2----|
E||--------------------------------|


Chorus

e||-------3-------------5-------------7-------------10-------|
B||-----3---3---------3---3---------5---5---------7----7-----|
G||---4-------4-----2-------2-----6-------6-----7----------7-|
D||-5-----------5-4-----------4-7-----------7-9----------9---|
A||----------------------------------------------------------|
E||----------------------------------------------------------|


Solo

e||-------------------------------------------------|
B||-------------------------------------------------|
G||-4-4-4-4-xxx-4-4-4-4-xxx-4-4-4-4-xxx-4-4-4-4-4-4-|
D||---------xxx---------xxx---------xxx-------------|
A||-2-2-2-2-xxx-2-2-2-2-xxx-2-2-2-2-xxx-2-2-2-2-2-2-|
E||-------------------------------------------------|

e||---------------------------------------------------|
B||---------------------------------------------------|
G||-7-7-7-7-6-6-6-6-9-9-9-11-11-9-9-9-11-11-9/11-9/11-|
D||---------------------------------------------------|
A||-5-5-5-5-4-4-4-4-7-7-7/9--9--7-7-7/9--9--7/9--7/9--|
E||---------------------------------------------------|

e||------------------------------------|
B||------------------------------------|
G||-9-9-9-9-9-11-11-11-7-7-7-7-7-7-7-7-|
D||------------------------------------|
A||-7-7-7-7-7-9--9--9--5-5-5-5-5-5-5-5-|
E||------------------------------------|


e||-----------------------------------------------------|
B||-----------------------------------------------------|
G||-11-11-11-9--9--6-6-6-7--7-7-7-7-7-6-6-6-6-2-2-2-2-2-|
D||-----------------------------------------------------|
A||-9--9--9--7--7--4-4-4-5--5-5-5-5-5-4-4-4-4-0-0-0-0-0-|
E||-----------------------------------------------------|


e||-------------------------------------|
B||-------------------------------------|
G||-9-9-9-9-9--9-9-7-9-9-9--11-11-11-11-|
D||-------------------------------------|
A||-7-7-7-7-7--7-7-5-7-7-7--9--9--9--9--|
E||-------------------------------------|


e||-----------------------------|
B||-----------------------------|
G||-----------------------------|
D||-4p2p0-----------------------|
A||-------0--0-0-0h2-2-2--2-2-2-|
E||-----------------------------|

View Just Lyrics...

There is whisky in the water
And there is death upon the vine
There is fear in the eyes of your father
And there is "Yours" and there is "Mine"
There is a desert veiled in pavement
And there's a city of seven hills
And all our debris flows to the ocean
To meet again, I hope it will

How could something so fair
Be so cruel
When this black sun revolved
Around you!

There is an answer in a question
And there is hope within despair
And there is beauty in a failure,
And there are depths beyond compare
There is a role of a lifetime
And there's a song yet to be sung
And there's a dumpster in the driveway
Of all the plans that came undone

How could something so fair
Be so cruel
When this black sun revolved
Around you!
How could something so fair
Be so cruel
When this black sun revolved
Around you!

There is whisky in the water
And there is death upon the vine
And there is grace within forgiveness
But it's so hard for me to find

How could something so fair
Be so cruel
When this black sun revolved
Around you!
How could something so fair
Be so cruel
When this black sun revolved
Around you!

View Albums that This Song Appears On...

  • Kintsugi

    Genre: Pop/Rock Label: Atlantic Album Duration: 45:10

    Release Date: March 31, 2015

    Moods: Poignant, Happy, Literate, Optimistic, Autumnal, Earnest, Intimate, Lush, Reflective, Sentimental, Wistful, Yearning, Airy, Sweet, Perky, Thoughtful

    Styles: Indie Rock, Indie Pop, Alternative/Indie Rock

    Themes: New Love, Comfort, In Love, Rainy Day, Relationships, Relaxation, Solitude

Close panel

Help Rate This Tab by Voting Up or Down

Vote Up Vote Down
Rating: -0 +0

Other Songs Like This

x

Copyright © 2017