Song: No Room In Frame

Band: Death Cab For Cutie
Composed By: Ben Gibbard, Chris Walla, Jason McGerr, Nicholas Harmer

Rating: -0 +0 Views: 146

Tuning: Standard

Video lesson: https://www.youtube.com/watch?v=vqoih2v_Lvo



    

Verse
e||-----------------------------------|
B||-----------------------------------|
G||-----------------------------------|
D||------<12>-------------------------|
A||------------------<12>-------------|
E||-<12>-------<7>----------<12>-<12>-|

e||-----------------------------------|
B||-----------------------------------|
G||-----------------------------------|
D||------<12>-------------------------|
A||------------------<12>-------------|
E||-<12>-------<7>----------<12>-<12>-|

e||-----------------------------------|
B||-----------------------------------|
G||-----------------------------------|
D||------<12>-------------------------|
A||------------------<12>-------------|
E||-<12>-------<7>----------<12>-<12>-|



    

e||-----------------------------------|
B||-----------------------------------|
G||-----------------------------------|
D||------<12>-------------------------|
A||------------------<12>-------------|
E||-<12>-------<7>----------<12>-<12>-|

e||----------------|
B||-<12>-----------|
G||----------13----|
D||-------------11-|
A||------<7>-------|
E||----------------|

e||----------------|
B||-<12>-----------|
G||----------13----|
D||-------------11-|
A||------<7>-------|
E||----------------|


Pre-Verse
e||----------------|
B||----------------|
G||-16-16-16/18/13-|
D||-xx-xx-xx-xx-xx-|
A||-14-14-14/16/11-|
E||----------------|

e||--------------|
B||--------------|
G||-14-13-11-9/6-|
D||-xx-xx-x--x-x-|
A||-12-11-9--7/4-|
E||--------------|

e||----------------|
B||----------------|
G||-16-16-16/18/13-|
D||-xx-xx-xx-xx-xx-|
A||-14-14-14/16/11-|
E||----------------|

e||--------------------|
B||--------------------|
G||-14-13-11-9/6-6/9-9-|
D||-xx-xx-x--x-x-x-x-x-|
A||-12-11-9--7/4-4/7-7-|
E||--------------------|

Chorus
Gtr1
 PM * * * * * * * * * * * *
e||-------------------------|
B||-------------------------|
G||-------------------------|
D||-------------------------|
A||-------------------------|
E||-0-0-0-0-0-0-0-0-0-0-0-0-|

Gtr2
e||---------------|
B||---------------|
G||-4--1----------|
D||-------2-----2-|
A||----------4----|
E||---------------|

Gtr1
 PM * * * * * * * * * * * *
e||-------------------------|
B||-------------------------|
G||-------------------------|
D||-------------------------|
A||-------------------------|
E||-0-0-0-0-0-0-0-0-0-0-0-0-|

Gtr2
e||---------------|
B||---------------|
G||-4--1----------|
D||-------2-----2-|
A||----------4----|
E||---------------|

Gtr1
 PM * * * * * * * * * * * *
e||-------------------------|
B||-------------------------|
G||-------------------------|
D||-------------------------|
A||-------------------------|
E||-0-0-0-0-0-0-0-0-0-0-0-0-|

Gtr2
e||---------------|
B||---------------|
G||-4--1----------|
D||-------2-----2-|
A||----------4----|
E||---------------|

Gtr1
 PM * * * * * * * * * * * *
e||-------------------------|
B||-------------------------|
G||-------------------------|
D||-------------------------|
A||-------------------------|
E||-0-0-0-0-0-0-0-0-0-0-0-0-|

Gtr2
e||-------------------|
B||-------------------|
G||-4--1--------------|
D||-------2-----4---7-|
A||----------4--------|
E||-------------------|

Breakdown
e||-------------------------------------------------------------|
B||-------------------------------------------------------------|
G||-------1--------------1--------------1--------------1--------|
D||---2------2---4---2------2---2---2------2---2---2------2---2-|
A||-4---4------4---2---2------2---0---0------0---0---0------0---|
E||-------------------------------------------------------------|

e||-------------------------------------------------------------|
B||-------------------------------------------------------------|
G||-------1--------------1--------------1--------------1--------|
D||---2------2---4---2------2---2---2------2---2---2------2---2-|
A||-4---4------4---2---2------2------------------0---0------0---|
E||-------------------------------2---2------2------------------|


Solo Rhythm
Gtr 1
e||--------------------|
B||-------4------4---4-|
G||---4------4-----4---|
D||-4---4------4-------|
A||--------------------|
E||--------------------|

e||--------------------|
B||-------5------5---5-|
G||---4------4-----4---|
D||-6---6------6-------|
A||--------------------|
E||--------------------|

e||--------------------|
B||-------5------5---5-|
G||---6------6-----6---|
D||-7---7------7-------|
A||--------------------|
E||--------------------|

e||--------------------|
B||-------5------5---5-|
G||---6------6-----6---|
D||-7---7------7-------|
A||--------------------|
E||--------------------|

e||--------------------|
B||-------4------4---4-|
G||---4------4-----4---|
D||-4---4------4-------|
A||--------------------|
E||--------------------|

e||--------------------|
B||-------5------5---5-|
G||---4------4-----4---|
D||-6---6------6-------|
A||--------------------|
E||--------------------|

e||--------------------|
B||-------5------5---5-|
G||---6------6-----6---|
D||-7---7------7-------|
A||--------------------|
E||--------------------|

e||--------------------|
B||-------5------9-5---|
G||---6------6-------7-|
D||-7---7------7-------|
A||--------------------|
E||--------------------|

Gtr 2
e||-----------------------------------------------------|
B||-----------------------------------------------------|
G||-----------------------------------------------------|
D||-4-4-4-4-4-4-4/6-6-6-6-6-6-6/7-7-7-7-7-7-7-7-7-7-7-7-|
A||-----------------------------------------------------|
E||-----------------------------------------------------|


Solo Lead
e||----------------------|
B||----------------------|
G||-----8h9------13/11-9-|
D||-----------9/-xx-x--x-|
A||---9----------11/9--7-|
E||-7-------9------------|

e||-----------------|
B||-----------------|
G||-----------------|
D||-----4-2-------6-|
A||-2h4-----4-4/6---|
E||-----------------|

e||--------------------------|
B||--------------------------|
G||-----8h9------16/18-11/13-|
D||-----------9/-xx----x--xx-|
A||---9----------14/6--9/-11-|
E||-7-------9----------------|

View Just Lyrics...

I don't know where to begin
There's too many things that I can't remember
As I disappeared like a trend
In the hum of the 5 in the early morning

And now I'm taking my time
Up through Coalinga through the valley
This highway lived in my mind
It takes me back to the place that made me

Was I in your way
When the cameras turned to face you?
No room in frame
For two

You cannot outrun a ghost
Speeding south bound lanes with abandon
It catches you on the coast
Or on the cliffs of the Palisades you killed the engine

And then it hovers above
Reeling bodies failing to discover
The thing they once knew as love
Raising their voices to convince one another

Was I in your way
When the cameras turned to face you?
No room in frame
For two

How can I stay
In the sun
When the rain flows
All through my veins
It's true

And I guess it's not a failure we could help
And we'll both go on to get lonely with someone else
With someone else

Was I in your way
When the cameras turned to face you?
No room in frame
For two

How can I stay
In the sun
When the rain flows
All through my veins
It's true

And I guess it's not a failure we could help
And we'll both go on to get lonely with someone else

View Albums that This Song Appears On...

  • Kintsugi

    Genre: Pop/Rock Label: Atlantic Album Duration: 45:10

    Release Date: March 31, 2015

    Moods: Poignant, Happy, Literate, Optimistic, Autumnal, Earnest, Intimate, Lush, Reflective, Sentimental, Wistful, Yearning, Airy, Sweet, Perky, Thoughtful

    Styles: Indie Rock, Indie Pop, Alternative/Indie Rock

    Themes: New Love, Comfort, In Love, Rainy Day, Relationships, Relaxation, Solitude

Close panel

Help Rate This Tab by Voting Up or Down

Vote Up Vote Down
Rating: -0 +0

Other Songs Like This

x

Copyright © 2017