Song: Little Wanderer

Band: Death Cab For Cutie
Composed By: Ben Gibbard

Rating: -0 +0 Views: 190

Death Cab for Cutie - Little Wanderer

https://www.youtube.com/watch?v=io9ivuo4r6Q



    

Intro :


E|---------------------------------------------------------------------
B|---------------------------------------------------------------------
G|--------------------1---2-2-2-1-----------------------1---2-2-2-4----
D|---2---4-4-4-2----2---2--------------2---4-4-4-2----2---2------------
A|-4---4-----------------------------4---4-----------------------------
E|---------------------------------------------------------------------



    


E|---------------------------------------------------
B|---------------------------------------------------
G|--------------------1---2-1------------------------
D|---2---4-4-4-2----2---2-----4-2------2---4---4-2-2-
A|-4---4-----------------------------4---4---4-------
E|---------------------------------------------------

View Just Lyrics...

You sent a photo out your window of Tokyo
Told me you were doing fine
You said the cherry blossoms were blooming
And that I was on your mind
But I couldn’t make you out through the glitches
It’s how it always seems to go
So we say our goodbyes over messenger
As the network overloads
When the network overloads

You’re my wanderer, little wanderer
Off across the sea
You’re my wanderer, little wanderer
Won’t you wander back to me
Back to me

Always fall asleep when you’re waking
I count the hours on my hands
Doing the math to the time zone you’re at
Is an unseen part of the plan
But if you’ll be my bluebird returning
Then I’ll be your evergreen
Standing tall on your horizon
Guiding you home to me
Guiding you home to me

You’re my wanderer, little wanderer
Off across the sea
You’re my wanderer, little wanderer
Won’t you wander back to me
You’re my wanderer, little wanderer
How I wish that you could see
You’re my wanderer, little wanderer
How I need you back with me
Back with me

You sent a photo out your window of Paris
Of what you wish that I could see
But someone’s gotta be the lighthouse
And that someone’s gotta be me
And I hope your absence makes us grow fonder
I hope we always feel the same
When our eyes meet past security,
We embrace in the baggage claim
When we kiss in the baggage claim

You’re my wanderer, little wanderer
Off across the sea
You’re my wanderer, little wanderer
Won’t you wander back to me
You’re my wanderer, little wanderer
How I wish that you could see
You’re my wanderer, little wanderer
How I need you back with me
Back with me

View Albums that This Song Appears On...

  • Kintsugi

    Genre: Pop/Rock Label: Atlantic Album Duration: 45:10

    Release Date: March 31, 2015

    Moods: Poignant, Happy, Literate, Optimistic, Autumnal, Earnest, Intimate, Lush, Reflective, Sentimental, Wistful, Yearning, Airy, Sweet, Perky, Thoughtful

    Styles: Indie Rock, Indie Pop, Alternative/Indie Rock

    Themes: New Love, Comfort, In Love, Rainy Day, Relationships, Relaxation, Solitude

Close panel

Help Rate This Tab by Voting Up or Down

Vote Up Vote Down
Rating: -0 +0

Other Songs Like This

x

Copyright © 2017