Song: The Ghosts Of Beverly Drive

Band: Death Cab For Cutie
Composed By: Ben Gibbard, Chris Walla, Jason McGerr, Nicholas Harmer

Rating: -0 +0 Views: 15

Death Cab For Cutie - The Ghosts of Beverly Drive

Tuning: eBGDAE



    

Video lesson: https://www.youtube.com/watch?v=jUmZAhYlpfM

Intro
e||---------------------------|
B||---------------------------|
G||---------------------------|
D||---------------------------|
A||---------------------------|
E||-x-5-5--5--x-5-5--5--x-5-5-|

e||-----------------------------|
B||-----------------------------|
G||-----------------------------|
D||-----------------------------|
A||-----------------------------|
E||-x-5-5--5--x-5-5--5--0-2-0-2-|



    

e||---------------------------|
B||---------------------------|
G||---------------------------|
D||---------------------------|
A||---------------------------|
E||-x-5-5--5--x-5-5--5--x-5-5-|

e||-----------------------------|
B||-----------------------------|
G||-----------------------------|
D||-----------------------------|
A||-----------------------------|
E||-x-5-5--5--x-5-5--5--0-2-0-2-|



Verse
e||---------------------------|
B||---------------------------|
G||---------------------------|
D||---------------------------|
A||---------------------------|
E||-x-5-5--5--x-5-5--5--x-5-5-| 3x

e||-----------------------------|
B||-----------------------------|
G||-----------------------------|
D||-----------------------------|
A||-----------------------------|
E||-x-5-5--5--x-5-5--5--0-2-0-2-|

e||---------------------------|
B||---------------------------|
G||---------------------------|
D||---------------------------|
A||---------------------------|
E||-x-5-5--5--x-5-5--5--x-5-5-| 3x

e||-----------------------------|
B||-----------------------------|
G||-----------------------------|
D||-----------------------------|
A||-----------------------------|
E||-x-5-5--5--x-5-5--5--0-2-0-2-|

Chorus

e||----------------------------------------------|
B||----5---5---5-------------5---5---5-7---------|
G||--------------7-6---6-----------------6---6---|
D||-/7---7---7-------7---7-7---7---7-------7---7-|
A||----------------------------------------------|
E||----------------------------------------------|

e||-----------------------------------------------|
B||---5---5---5-----------------------------------|
G||-------------7-6---6h7p6-2--2--2--2-2-2/4--4-4-|
D||-7---7---7-------7-----------------------------|
A||-----------------------------------------------|
E||-----------------------------------------------|

e||----------------------------------------------|
B||----5---5---5-------------5---5---5-7---------|
G||--------------7-6---6-----------------6---6---|
D||-/7---7---7-------7---7-7---7---7-------7---7-|
A||----------------------------------------------|
E||----------------------------------------------|

e||-----------------------------------------------|
B||---5---5---5-----------------------------------|
G||-------------7-6---6h7p6-2--2--2--2-2-2/4--4-4-|
D||-7---7---7-------7-----------------------------|
A||-----------------------------------------------|
E||-----------------------------------------------|

Chorus 2

e||-----------------------------------------------------|
B||-------5------------5-------------2------------------|
G||---6------6-6---6------6------2------2-2---2---4--2--|
D||-7---7--------7---7---------4---4--------4---4-------|
A||-----------------------------------------------------|
E||-----------------------------------------------------|

e||----------------------------------------------------|
B||-------5-----7-----5-------------2------------------|
G||---6-----6-----6-----6-------2------2-2---2---4--2--|
D||-7---7-----7-----7---------4---4--------4---4-------|
A||----------------------------------------------------|
E||----------------------------------------------------|

e||-----------------------------------------------------|
B||-------5------------5-------------2------------------|
G||---6------6-6---6------6------2------2-2---2---4--2--|
D||-7---7--------7---7---------4---4--------4---4-------|
A||-----------------------------------------------------|
E||-----------------------------------------------------|

e||--------------------------------------------------|
B||-------5-----7-----5-------------3-----3-----3----|
G||---6-----6-----6-----6-------2-----2-----2-----4--|
D||-7---7-----7-----7---------4---4-----4-----4------|
A||--------------------------------------------------|
E||--------------------------------------------------|

View Just Lyrics...

If only you'd have known me before the accident
For with that grand collision came a grave consequence
Receptors overloaded, they burst and disconnect
'Til there was little feeling please work with what is left

Oh I need not be flattered that you've never been here before
So there's no need to mention that you've no firsts anymore
But if you let me be your skyline I'll let you be the wave
That reduces me to rubble that looked safe from far away

I don't know why, I don't know why
I return to the scenes of these crimes
Where the hedgerows slowly wind
Through the ghosts of Beverly Drive
I don't know why, I don't know why
I don't know what I expect to find
Where all the news is second hand
And everything just goes on as planned

You wanna teach but not be taught
And I wanna sell but not be bought
So let us not be lonesome
So let us not be lonesome
Lost in between our needs and wants
Our needs and wants

I don't know why, I don't know why
I return to the scenes of these crimes
Where the hedgerows slowly wind
Through the ghosts of Beverly Drive
I don't know why, I don't know why
I don't know what I expect to find
Where all the news is second hand
And everything just goes on as planned

I don't know why, I don't know why
I don't know why, I don't know why
I don't know why, I don't know why
I don't know why, I don't know why

View Albums that This Song Appears On...

  • Kintsugi

    Genre: Pop/Rock Label: Atlantic Album Duration: 45:10

    Release Date: March 31, 2015

    Moods: Poignant, Happy, Literate, Optimistic, Autumnal, Earnest, Intimate, Lush, Reflective, Sentimental, Wistful, Yearning, Airy, Sweet, Perky, Thoughtful

    Styles: Indie Rock, Indie Pop, Alternative/Indie Rock

    Themes: New Love, Comfort, In Love, Rainy Day, Relationships, Relaxation, Solitude

Close panel

Help Rate This Tab by Voting Up or Down

Vote Up Vote Down
Rating: -0 +0

Other Songs Like This

x

Copyright © 2017