Song: Hold No Guns

Band: Death Cab For Cutie
Composed By: Ben Gibbard, Chris Walla, Jason McGerr, Nicholas Harmer

Rating: -0 +1 Views: 940

-------------------------------------------------------------------------------
                             Hold No Guns - Death Cab For Cutie
-------------------------------------------------------------------------------
Tabbed by: Stefan Edginton
From the album Kintsugi (2015)

Tuning: Standard



    

Verse
e|---------------------------------------------------------------------------|
B|---------------------------------------5-----------------------------------|
G|----------------------------------------------------2---2---2---1----------|
D|-------4/6---6-----------6---------6-------6---6---------------------------|
A|---2/4-----------7---7-------7---4---4---4---4----0---0---0---0------------|
E|-0---------0---0---0---0---0---0-------------------------------------------|

e|---------------------------------------------------------------------------|
B|---------------------------------------5----------------0------------------|
G|---------------------------------------------------------------------------|
D|-------4/6---6-----------6---------6-------6---6----2-------2---2----------|
A|---2/4-----------7---7-------7---4---4---4---4----0---0---0---0------------|
E|-0---------0---0---0---0---0---0-------------------------------------------|

e|---------------------------------------------------------------------------|
B|---------------------------------------5------------------2-0--------------|
G|----------------------------------------------------2---2-------1----------|
D|-------4/6---6-----------6---------6-------6---6---------------------------|
A|---2/4-----------7---7-------7---4---4---4---4----0---0---0---0------------|
E|-0---------0---0---0---0---0---0-------------------------------------------|



    

e|---------------------------------------------------------------------------|
B|---------------------------------------5----------------0------------------|
G|----------------------------------------------------1----------------------|
D|-------4/6---6-----------6---------6-------6---6------------2---2----------|
A|---2/4-----------7---7-------7---4---4---4---4----0---0---0---0------------|
E|-0---------0---0---0---0---0---0-------------------------------------------|

Chorus
e|---------------------------------------------------------------------------|
B|-----------------------------------------------5---------------------------|
G|-----------2-------4---------8---------6---------------6-------------------|
D|---2---------2-------6-----9---------6-----6---------6-----6---------------|
A|-----2-----------------------------7---------------7-----------7-----------|
E|-0-----0/2-----2/4-----4-7-----7-5-------5---5---5-------5---5-------------|

e|---------------------------------------------------------------------------|
B|-----------------------------------------------5---------------------------|
G|-----------2-------4---------8---------6---------------6-------------------|
D|---2---------2-------6-----9---------6-----6---------6-----6---------------|
A|-----2-----------------------------7---------------7-----------7-----------|
E|-0-----0/2-----2/4-----4-7-----7-5-------5---5---5-------5---5-------------|

Verse
e|---------------------------------------------------------------------------|
B|---------------------------------------5------------------2-0--------------|
G|----------------------------------------------------1---1-------1----------|
D|-------4/6---6-----------6---------6-------6---6---------------------------|
A|---2/4-----------7---7-------7---4---4---4---4----0---0---0---0------------|
E|-0---------0---0---0---0---0---0-------------------------------------------|

e|---------------------------------------------------------------------------|
B|---------------------------------------5----------------0------------------|
G|----------------------------------------------------1-----1----------------|
D|-------4/6---6-----------6---------6-------6---6------------4---2----------|
A|---2/4-----------7---7-------7---4---4---4---4----0---0---0---0------------|
E|-0---------0---0---0---0---0---0-------------------------------------------|

e|---------------------------------------------------------------------------|
B|---------------------------------------5----------------0-2-0--------------|
G|----------------------------------------------------2----------------------|
D|-------4/6---6-----------6---------6-------6---6----------------2----------|
A|---2/4-----------7---7-------7---4---4---4---4----0---0---0---0------------|
E|-0---------0---0---0---0---0---0-------------------------------------------|

e|---------------------------------------------------------------------------|
B|---------------------------------------5----------------0------------------|
G|----------------------------------------------------1-----1----------------|
D|-------4/6---6-----------6---------6-------6---6------------4---2----------|
A|---2/4-----------7---7-------7---4---4---4---4----0---0---0---0------------|
E|-0---------0---0---0---0---0---0-------------------------------------------|

Chorus
e|---------------------------------------------------------------------------|
B|-----------------------------------------------5---------------------------|
G|-----------2-------4---------8---------6---------------6-------------------|
D|---2---------2-------6-----9---------6-----6---------6-----6---------------|
A|-----2-----------------------------7---------------7-----------7-----------|
E|-0-----0/2-----2/4-----4-7-----7-5-------5---5---5-------5---5-------------|

e|---------------------------------------------------------------------------|
B|-----------------------------------------------5---------------------------|
G|-----------2-------4---------8---------6---------------6-------------------|
D|---2---------2-------6-----9---------6-----6---------6-----6---------------|
A|-----2-----------------------------7---------------7-----------7-----------|
E|-0-----0/2-----2/4-----4-7-----7-5-------5---5---5-------5---5-------------|

e|---------------------------------------------------------------------------|
B|-----------------------------------------------5---------------------------|
G|-----------2-------4---------8---------6---------------6-------------------|
D|---2---------2-------6-----9---------6-----6---------6-----6---------------|
A|-----2-----------------------------7---------------7-----------7-----------|
E|-0-----0/2-----2/4-----4-7-----7-5-------5---5---5-------5---5-------------|

e|---------------------------------------------------------------------------|
B|-----------------------------------------------5---------------------------|
G|-----------2-------4---------8---------6---------------6-------------------|
D|---2---------2-------6-----9---------6-----6---------6-------6-------------|
A|-----2-----------------------------7---------------7-------7---------------|
E|-0-----0/2-----2/4-----4-7-----7-5-------5---5---5-------5-----5-----------|

e|---------------4-------------4---------------------------------------------|
B|-----------------------------------------------5---------------------------|
G|-------5-------------5---5-------------6---------------6-------------------|
D|-----4-----4-------4-----------------6-----6---------6-----6---------------|
A|---6-------------------------------7---------------7-----------7-----------|
E|-4-------4---4---4-----4---4---4-5-------5---5---5-------5---5-------------|

Outro
e|---------------------------------------------------------------------------|
B|---------------------------------------------------------------------------|
G|---------------------------------------------------------------------------|
D|-------4/6---6-------------------------------------------------------------|
A|---2/4-----------7~--------------------------------------------------------|
E|-0---------0---0-0~--------------------------------------------------------|

View Just Lyrics...

Darling, don't you understand
That there are no winners
Metals rung from silken strands
To greet you at the finish
As we're dissolving into the sea
I can only take what I can carry
The counsel's combing through our debris
The treasures we never buried

My love why do you run?
For my hands hold no guns

Darling, though you may pretend
Pretend that you are selfless
You break with but the slightest bend
It leaves you lost and helpless
So to whom will you place the call
In the coldest night of winter?
'Cause numbers change and people fall
And friends they always splinter

My love why do you run?
For my hands hold no guns

My love why do you run?
For my hands hold no guns
They hold no guns
No, not a one

View Albums that This Song Appears On...

  • Kintsugi

    Genre: Pop/Rock Label: Atlantic Album Duration: 45:10

    Release Date: March 31, 2015

    Moods: Poignant, Happy, Literate, Optimistic, Autumnal, Earnest, Intimate, Lush, Reflective, Sentimental, Wistful, Yearning, Airy, Sweet, Perky, Thoughtful

    Styles: Indie Rock, Indie Pop, Alternative/Indie Rock

    Themes: New Love, Comfort, In Love, Rainy Day, Relationships, Relaxation, Solitude

Close panel

Help Rate This Tab by Voting Up or Down

Vote Up Vote Down
Rating: -0 +1

Other Songs Like This

x

Copyright © 2017