Song: Victim 26

Band: Death Trap

Rating: -1 +1 Views: 51

Title:victim 26
Band: Death Trap
Album: Replenishing The Source 
Written by:LS Produced by: MKE RECORDS
Filiy_O@hotmail.com

intro:play this with a light ekho effect
e|----------------------------------------|
A|----------------------------------------|
D|---0-----0----0----0--------------------|play do this 
G|--0-0---0-0--0-0--0-0-------------------|2 times 
B|-7-----5----7----3----------------------|
E|----------------------------------------|
verse
Then guitar 1 play this with a echo play this 4 times
e|----------------------------------------|
A|----0------0------0------0------0-------|
D|---0-0----0-0----0-0----0-0----0-0------|
G|--0---0--0---0--0---0--0---0--0---0-----|
B|-7------5------3------2------2----------|
E|----------------------------------------| 
Guitar 2 play this clean
e|----------------------------------------|
A|----------------------------------------|
D|-0------0------0------0-----------------|
G|-0------0------0------0-----------------|
B|-7------5------3------2-----------------|
E|----------------------------------------|
chorus
guitar 1 and 2 play the chorus with a light distortion
e|---------------------------------------------|
A|---------------------------------------------|
D|-00-9-0009-00-7-0007-00-5-0005-00-4-0004-0004|
G|-00-9-0009-00-7-0007-00-5-0005-00-4-0004-0004|
B|-77-7-7777\55-5-5555\33-3-3333\22-2-2222-2222|
E|---------------------------------------------|
verse
the next verse guitar 1 does this clean
e|---------------------------------------------|
A|---------------------------------------------|
D|-00-0-0009-00-0-0000-00-0-0000-00-0-0000-0000|
G|-00-0-0009-00-0-0000-00-0-0000-00-0-0000-0000|
B|-77-7-7777\55-5-5555\33-3-3333\22-2-2222-2222|
E|---------------------------------------------|
guitar 2 plays this with distortion
e|---------------------------------------------|
A|---------------------------------------------|
D|-0x-x-xxxx-0x-x-xxxx-0x-x-xxxx-0x-x-xxxx-xxxx|
G|-0x-x-xxxx-0x-x-xxxx-0x-x-xxxx-0x-x-xxxx-xxxx|
B|-7x-x-xxxx-5x-x-xxxx-3x-x-xxxx-2x-x-xxxx-xxxx|
E|---------------------------------------------|
Chorus
guitar 1 and 2 play the chorus with a light distortion
e|---------------------------------------------|
A|---------------------------------------------|
D|-00-9-0009-00-7-0007-00-5-0005-00-4-0004-0004|
G|-00-9-0009-00-7-0007-00-5-0005-00-4-0004-0004|
B|-77-7-7777\55-5-5555\33-3-3333\22-2-2222-2222|
E|---------------------------------------------|
and then you with the 1st verse
verse
 guitar 1 play this with a play clean           
e|----------------------------------------|
A|----0------0------0------0------0-------| 4 times
D|---0-0----0-0----0-0----0-0----0-0------|
G|--0---0--0---0--0---0--0---0--0---0-----| 
B|-7------5------3------2------2----------|
E|----------------------------------------|



    

ok if u like the tab and you dont think your playing it rite email me and ill
tell you were you can down load us for free.

Close panel

Help Rate This Tab by Voting Up or Down

Vote Up Vote Down
Rating: -1 +1

Other Songs Like This

x

Copyright © 2019