Song: Thats How You Know

Band: Demi Lovato
Composed By: Andrew Goldstein, Demi Lovato, Emanuel Kiriakou, Savan Kotecha

Rating: -1 +1 Views: 190

(/) Slide Up  (\) Slide Down  (h) Hammer On  (p) Pull Off  (b) Bend (r) Release (v) Vibrato

Eb|----------------------------------------------------------------------------------------------|
Bb|----------------------------------------------------------------------------------------------|
Gb|------12------12------12------12-----12-----12-----12-----12------12------12------12------12--|
Db|--13------13------13------13------8------8------8------8------10------10------10------10------|
Ab|----------------------------------------------------------------------------------------------|
Db|----------------------------------------------------------------------------------------------|



    

Eb|-----------------------------------------------------------------|
Bb|-----------------------------------------------------------------|
Gb|------12-----12------12------13------12------12------12------12--|
Db|--10------8------10------10------13------13------13------13------|
Ab|-----------------------------------------------------------------|
Db|-----------------------------------------------------------------|

Eb|----------------|
Bb|----------------|
Gb|----------------|
Db|--10--10--3--5--|
Ab|--10--10--3--5--|
Db|--10--10--3--5--|

Eb|------------------------------------------------------------|
Bb|------------------------------------------------------------|
Gb|--12------12-----12------12--10--12------12-----12------12--|b
Db|------10------8------10--------------10------8------10------|
Ab|------------------------------------------------------------|
Db|------------------------------------------------------------|



    

Eb|-------------------------------------------------|
Bb|-------------------------------------------------|
Gb|--12------12-----12------12--10--9--12-----------|
Db|------10------8------10-----------------10--12---|
Ab|-------------------------------------------------|
D|--------------------------------------------------|


I don't have the rest, but most of the same stuff is played through out the whole song.

View Albums that This Song Appears On...

  • Disneymania, Vol. 6

    Genre: Children's Label: Disney / Walt Disney Song Duration on Album: 3:13 Album Duration: 54:42

    Release Date: May 20, 2008

    Moods: Innocent, Refined, Amiable/Good-Natured, Confident, Sentimental, Smooth, Wistful, Bright, Delicate, Joyous, Slick, Warm, Cheerful, Freewheeling, Sugary, Theatrical, Bittersweet, Summery

    Styles: Sing-Alongs, Teen Pop

    Themes: Family Gatherings, Parenthood, School, Sunday Afternoon

  • Princess Disneymania

    Genre: Children's Label: Walt Disney Song Duration on Album: 3:13 Album Duration: 49:43

    Release Date: September 30, 2008

Close panel

Help Rate This Tab by Voting Up or Down

Vote Up Vote Down
Rating: -1 +1

Other Songs Like This

x

Copyright © 2019