Song: Wenn Ich Realistisch Bin

Band: Die Sterne

Rating: -1 +1 Views: 95



    

																				-------------------------------------------------------------------------------
			     WENN ICH REALISTISCH BIN - Die Sterne
-------------------------------------------------------------------------------
Tabbed by: AndreaHB
Email: maurer-andrea@web.de

Tuning: EADGBe

Chords:
   Dm   Am  Bb  C    G   A   Eb

e|--5---5---6---8----3---5---6------------------------------------------------------|
B|--5---5---6---8----3---5---8-----------------------------------------------------|
G|--6---5---7---9----4---6---8------------------------------------------------------|
D|--7---7---8---10---5---7---8-----------------------------------------------------|
A|--7---7---8---10---5---7---6-------------------------------------------------------|
E|--X---5---6---8----3---5---X------------------------------------------------------|



    

Verse 1:
  Dm           Am         Bb     C

    Das Bl

Close panel

Help Rate This Tab by Voting Up or Down

Vote Up Vote Down
Rating: -1 +1

Other Songs Like This

x

Copyright © 2019