Song: Born Normal

Band: Dispatch
Composed By: Chad Urmston

Rating: -1 +1 Views: 145



    

																				Song: Born Normal
Artist: Dispatch
Tabbed By: Maximus Klein
Tuning: Standard

Intro and Chorus: Em, Am, Cm

e------0------0--0--0-----0----3-3--3|---------------------
B------0------0--0--0-----0----3-3--3|---------------------
G------0------0--0--0-0h2-2--0h5-5--5|---------------------
D--0h2-2--0h2-2--2--2-0h2-2--0h5-5--5|-x3------------------
A--0h2-2--0h2-2--2--2-0---0--0h3-3--3|---------------------
E--0---0--0---0--0--0----------------|---------------------



    

Then

	A		C

e------0--0h3-3--3-3--3-3-3--3-3--3-33333------------------
B------0--0h3-3--3-3--3-3-3--3-3--3-33333------------------
G--0h2-2--0h5-5--5-5--5-5-5--5-5--5-55555------------------
D--0h2-2--0h5-5--5-5--5-5-5--5-5--5-55555------------------
A--0---0--0h3-3--3-3--3-3-3--3-3--3-33333------------------
E----------------------------------------------------------

Verse: "Born a normal child..." and "What punishment is this"
Em, Am, Cm

e------0------0--0--0-----0----3-3--3|---------------------
B------0------0--0--0-----0----3-3--3|---------------------
G------0------0--0--0-0h2-2--0h5-5--5|---------------------
D--0h2-2--0h2-2--2--2-0h2-2--0h5-5--5|-x3------------------
A--0h2-2--0h2-2--2--2-0---0--0h3-3--3|---------------------
E--0---0--0---0--0--0----------------|---------------------

Then: Em, Am, G, Bm
				   "Can you hear us..."
e------0------0--0--0-|-3-3-x-2-2--------------------------
B------0------0--0--0-|-3-3-x-3-3--------------------------
G------0------0--0--0-|-0-0-x-4-4--------------------------
D--0h2-2--0h2-2--2--2-|-0-0-x-4-4--------------------------
A--0h2-2--0h2-2--2--2-|-2-2-x-2-2--------------------------
E--0---0--0---0--0--0-|-3-3-x------------------------------

Refrain: "Callin' back to my friend..."

e-----------------------------------------2-2-x-5-5--------
B-----------------------------------------2-2-x-7-7--------
G-----------------------------------------4-4-x-7-7--------
D-----------------------------------------4-4-x-7-7--------
A--3------------3------------3------------2-2-x-5-5--------
E----0--1--2--3---0--1--2--3---0--1--2

View Albums that This Song Appears On...

  • Silent Steeples

    Genre: Pop/Rock Label: Dispatch / Universal Distribution / Universal Music / Universal Records Song Duration on Album: 4:47 Album Duration: 57:05

    Release Date: June 6, 2000

    Moods: Indulgent, Bright, Earthy, Rousing, Sprawling, Ambitious, Earnest, Freewheeling, Reflective, Self-Conscious, Spiritual, Summery, Amiable/Good-Natured, Confident, Laid-Back/Mellow, Nocturnal, Organic, Rollicking, Searching, Yearning, Cathartic, Intimate, Bittersweet, Brooding

    Styles: Alternative/Indie Rock, Adult Alternative Pop/Rock, Jam Bands

    Themes: Celebration, Freedom, Hanging Out, Summer, The Great Outdoors

Close panel

Help Rate This Tab by Voting Up or Down

Vote Up Vote Down
Rating: -1 +1

Other Songs Like This

x

Copyright © 2019