Song: Esto Ye Asturies

Band: Dixebra

Rating: -1 +1 Views: 149



    

																				Del discu "Dieron en duru"
 
   intro:
 ------------------------------------------------------------------|
 ------------------------------------------------------------------|
 ------------------------------------------------------------------|
 ------------------------------------------------------------------|
 ----------------------1-------------------------------1-----1~~---|
 --1-2-3---1-2-3---1-3---3-2-1-----1-2-3---1-2-3---1-3---1-3-------|




    

 ------------------------------------------------------------------|
 ------------------------------------------------------------------|
 ------------------------------------------------------------------|
 ------------------------------------------------------------------|
 ----------------------1-------------------------3s5--3-1-3-1------|
 --1-2-3---1-2-3---1-3---3-2-1-----1-2-3---1-2-3-------------------|



"Hay un pa

Close panel

Help Rate This Tab by Voting Up or Down

Vote Up Vote Down
Rating: -1 +1

Other Songs Like This

x

Copyright © 2019