Song: Stars Are Stars Bass

Band: Echo And The Bunnymen

Rating: -1 +1 Views: 147

G----------------------------------------|
D----------------------------------------|
A-55-5--055-5--055-5--055-5--------------|intro
E---5------5------5------5---055-05------|




    

G----------------------------------------|
D----------------------------------------|
A-------------------------055-5--055-5---|
E-055-05--055-05--055-05-----5------5----|


G-----------------------------------------|
D-----------------------------------------|
A-----------------33-3--033-3-------------|
E-055-05--055-05----3------3---3----------|........



    


G----------------------------------5--4--|
D----------------------------------------|
A--------------55-555------------3--2--2-|verse
E-5--3-5-3-5----------5--3-5-3-5---------|

"i saw you..."
G----------------------------------------|
D------------7-5-------------------------|
A---------------7-50---------------------|x3
E-3--3--3--3-----------------------------|


G----------------------------------------|
D----------------------------------------|
A-5575-5575--5575-5575-------------------|
E----------------------3.......----------|

back to verse

"now you've gone away..."
G-----------------------------------------|
D-----------------------------------------|
A-3-33-33-02-22-222-0-00-000-0-00---------|x3
E-----------------------------------------|

end on an "a"

Close panel

Help Rate This Tab by Voting Up or Down

Vote Up Vote Down
Rating: -1 +1

Other Songs Like This

x

Copyright © 2017