Song: Misfit Bass

Band: Elefant
Composed By: Diego Garcia

Rating: -0 +0 Views: 45



    

																				 Misfit - Elefant...

main riff.
G----------------------------------------!
D---5-5-5-5------------------------------!
A-----------3-3-3-3-4--4-4-4-6-6-6-6-----!
E----------------------------------------!

chorus.



    

G--------------------------------------------------------------------!
D------------------5-5-5-5-5-5-5-5-6-6-6-6-6-6-6-6-8-8-8-8-8-8-8-8---!
A--6-6-6-6-6-6-6-6---------------------------------------------------!
E--------------------------------------------------------------------!

G-------------------------------------------------------------------------------------!
D------------------5-5-5-5-5-5-5-5-6-6-6-6-6-6-6-6------------------------------------!
A--6-6-6-6-6-6-6-6----------------------------------6-6-6-6-6-6-6-6-6-6-6-6-6-6-6-6---!
E-------------------------------------------------------------------------------------!

View Just Lyrics...

Picked a girl up at the trainstop where I live
Took a drive along the beach by the ocean
Talk about the dreams we had while we were growing old
Wrote a poem on the back of your shoulder

Chorus

Tell me your name, tell me your story
Cause I'm into it, runnin' through life like a misfit

I will start again

Give the dog a bone to chew as I drive around
Wrote this song last night while I was sober

Chorus

Tell me your name, tell me a story
Cause I'm into it, runnin' through life like a misfit

And I kept on driving
I will start again

Chorus

Tell me your name, tell me a story
Cause I'm into it, runnin' through life like a misfit

View Albums that This Song Appears On...

  • Sunlight Makes Me Paranoid

    Genre: Pop/Rock Label: Hollywood Song Duration on Album: 3:14 Album Duration: 32:32

    Release Date: April 8, 2003

    Moods: Amiable/Good-Natured, Earnest, Literate, Reflective, Searching, Wistful

    Styles: Alternative/Indie Rock, Indie Rock

  • Misfit

    Label: Kemado

    Release Date: December 6, 2004

    Styles: Alternative/Indie Rock, Indie Rock, Indie Pop

  • Promo Only: Modern Rock Radio (November 2004)

    Label: Promo Only

Close panel

Help Rate This Tab by Voting Up or Down

Vote Up Vote Down
Rating: -0 +0

Other Songs Like This

x

Copyright © 2017