Song: We Dont Have To Take Our Clothes Off

Band: Ella Eyre
Composed By: Narada Michael Walden, Preston Glass

Rating: -0 +0 Views: 29

-------------------------------------------------------------------------------
                we don't have to take our clothes off
-------------------------------------------------------------------------------
Tabbed by: martyna
E-mail:

Tuning:



    

e|-----------------------------------------------------------------------------------------------|
B|-------4---4-----------4---4---8---6---8---9---8---6---4---4-----------4---8---6---6---4-------|
G|---5-----------5---5-------------------------------------------5---3-----------------------5---|
D|-----------------------------------------------------------------------------------------------|  
A|-----------------------------------------------------------------------------------------------|
E|-----------------------------------------------------------------------------------------------|
                                                                                             x4
e|-----------------------------------------------------------------------------------------------|
B|-------6---6---8---6---4-------4---6---8---6---9---8---6---4---6---8---6-----------------------|
G|---5-----------------------5-------------------------------------------------------------------|
D|-----------------------------------------------------------------------------------------------|
A|-----------------------------------------------------------------------------------------------|
E|-----------------------------------------------------------------------------------------------|
ref
e|-----------6---3-----------4---3-------------------------------------------|
B|---6---8-----------6---4-----------4---4---4---6-------6---4---------------|
G|---------------------------------------------------5-----------------------|
D|---------------------------------------------------------------------------|
A|---------------------------------------------------------------------------|
E|---------------------------------------------------------------------------|

e|-----------6---3-----------4---3-------------------------------------------|
B|---6---8-----------6---4-----------4---4---4---6---8---6---6---4-----------|
G|---------------------------------------------------------------------------|
D|---------------------------------------------------------------------------|
A|---------------------------------------------------------------------------|
E|---------------------------------------------------------------------------|

e|------------------------------------------------------------------------------------------------|
B|-------4---4-----------4---4---8---6---8---9---8---6---4---4-----------4---8---6---6---4--------|
G|---5-----------5---5-------------------------------------------5---3-----------------------5----|
D|------------------------------------------------------------------------------------------------|
A|------------------------------------------------------------------------------------------------|
E|------------------------------------------------------------------------------------------------|
                                                                                              x2
e|---------------------------------------------------------------6---6---3---|
B|-------6---6---8---6---4-------4---6---8---6---9---8---6---4---------------|
G|---5-----------------------5-----------------------------------------------|
D|---------------------------------------------------------------------------|
A|---------------------------------------------------------------------------|
E|---------------------------------------------------------------------------|



    
 


************************************

| /   slide up
| \   slide down
| h   hammer-on
| p   pull-off
| ~   vibrato
| +   harmonic
| x   Mute note
| b   Bend
| pb  Pre-bend
| br  Bend release
| pbr Pre-bend release
| brb Bend release bend

************************************

View Albums that This Song Appears On...

  • Ella Eyre

    Label: Virgin Song Duration on Album: 3:51

  • Virgin Records: 40 Years of Disruptions

    Label: Virgin Song Duration on Album: 3:52

Close panel

Help Rate This Tab by Voting Up or Down

Vote Up Vote Down
Rating: -0 +0

Other Songs Like This

x

Copyright © 2017