Song: Cant Help Falling In Love With You

Band: Elvis Presley
Composed By: Luigi Creatore

Rating: -0 +0 Views: 174



    

																				Can't Help Falling In Love (Instrumental)
Elvis Presley

Tabbed by 
rj pasive 
wazzup wazzup!!!...instrumental lng 'to...gitara na ang kumakanta...ndi na kau
magsasayang ng boses...well, continuous ang pag-play nito...right timing na lng
and COMMON SENSE!!!...cute 'to pag na-perfect nyo...PLEASE RATE THIS ACCURATELY!

INTRO:
         F       G       Am      G          C        G       C

E||------------------------------------------0-----1---0---------------------------0--------|
B||------------------0---------1---------3-----------------------3---------1-----1---1------|
G||---0----2--------------0---------2-----------------------0---------0--------0-------0----|
D||-------------3-------0---0-----2---2---------0---------2---2-----0---0----2-----------2--|
A||-----------3---3------------0---------2-------------3-------------------3----------------|
E||--------1---------3-------------------------------------------3--------------------------|



    

VERSE:

      C         G        Am                       F          C         G

E||-------------3-----------------------------0---1----------0-----------------------0------|
B||---1-------------------1----------------3-----------1----------1----3--------------------|
G||--------0---------0---------2---------------------2---2------0---0-------0---------0-----|
D||------2---2-----0---0-----2---2-----2----------3-----------------------0----------0------|
A||---3---------2---------0----------------------------------3---------2------0----2--------|
E||---------------------------------3--------------------------------------------3----------|

         F       G       Am      G          C        G       C

E||------------------------------------------0-----1---0---------------------------0--------|
B||------------------0---------1---------3-----------------------3---------1-----1---1------|
G||--------2--------------0---------2-----------------------0---------0--------0-------0----|
D||-------------3-------0---0-----2---2---------0---------2---2-----0---0----2-----------2--|
A||-----------3---3------------0---------2-------------3-------------------3----------------|
E||--------1---------3-------------------------------------------3--------------------------|

( repeat verse )

BRIDGE:

E||---0-------------------

View Albums that This Song Appears On...

  • Elvis: 1935-1977 [DVD + Booklet]

    Label: Anvil Media

    Release Date: April 20, 2007

    Styles: Rock & Roll

Close panel

Help Rate This Tab by Voting Up or Down

Vote Up Vote Down
Rating: -0 +0

Other Songs Like This

x

Copyright © 2017