Song: Mustang Sally Bass

Band: Eric Clapton

Rating: -1 +1 Views: 562



    

																				heyy. This is my first tab ...So i hope its ok!

Mustang Sally - Eric Clapton

G------------------------------------------------|
D------------------------------------------------|
A--3-----------------2--3------------------------|
E------0--1--2--3--------------------------------|
Repeat this x5



    

G------------------------------------------------|
D--3------------------2--3-----------------------|
A------0--1--2--3--------------------------------|
E------------------------------------------------|
Repeat this x3

G-----------------------------------------------|
D-----------------------------------------------|
A-----------------------------------------------|
E----0-0-0-0-0-0----3--2--1---------------------|
Repeat This x1

Repeat this over and over and there you have it....
Enjoy.....xx

Close panel

Help Rate This Tab by Voting Up or Down

Vote Up Vote Down
Rating: -1 +1

Other Songs Like This

x

Copyright © 2019