Song: Alaska

Band: Eyes Adrift

Rating: -1 +1 Views: 17054

Band:Eyes adrift
Song;Alaska
Tabbed by: Gaz flint
E-mail; gaznirvanachilipepperdude@hotmail.com

tuning; standard E

    

After i submited i realised that the guitar tab can't be much different, so i sat
down and figured it out.I also found rubbish versions of this all over the net
and im pretty sure this is 100% correct. The timing is the worst thing about it
so just listen to it a few times and you should get it.

 intro/verse/outro
E------------------------------------------------------------------
B-------------0---------------------------------0--------0---------
G----0---0------0--------------0-------0---0------0--------0-------
D---0---0----0-------0---0-------0----0---0---0--------------0-----
A--3---2---0--------0---0----0-------2---3---0---------------------
E------------------3---2---0--------------------------3------------

then on some bits it finishes like this
E---------------3----
B-------0-------3----
G---------0-----0----
D----0----------0----
A--0------------2----
E---------------3----



    

chorus


E--------------------------------5---------
B--2---------3---------7---------5---------
G--2---------3---------7---------6---------
D--2---------3---------7---------7---------
A--0---------5---------5---------7---------
E--------------------------------5---------

Enjoy!,(and tell all of your friends to go and buy the eyes adrift album
as it is great and no one is aware of it)

Close panel

Help Rate This Tab by Voting Up or Down

Vote Up Vote Down
Rating: -1 +1

Other Songs Like This

x

Copyright © 2018