Song: Chemical Prisoner Bass

Band: Falling In Reverse
Composed By: Mikhail Tank

Rating: -0 +1 Views: 22

Intro 0:13
E |-----------------------------------------------------------------|
B |-----------------------------------------------------------------|
F#|---------------------------------0-0---0-0-0---0-0-0-0-0-0-3-3-3-|
B |-3-3---3-3-3---3-0-0-0-0-0-0-0-0---------------------------------|
    1 + 2 + 3 + 4 + 1 + 2 + 3 + 4 + 1 + 2 + 3 + 4 + 1 + 2 + 3 + 4 + 



    

E |-----------------------------------------------------------------|
B |-----------------------------------------------------------------|
F#|---------------------------------0-0-0-0-0-0-0-0-0-0-0-0-0-3-3-3-|
B |-3-3-3-3-3-3-3-3-0-0-0-0-0-0-0-0---------------------------------|
    1 + 2 + 3 + 4 + 1 + 2 + 3 + 4 + 1 + 2 + 3 + 4 + 1 + 2 + 3 + 4 + 

Verse 0:27
E |-----------------------------------------------------------------|
B |-----------------7-------------------------------3---------------|
F#|-0-0-------0000--------------------------------------------------|
B |---------------------------------3-3-------3333--------3---3-5-5-|
    1 + 2 + 3 + 4 + 1 + 2 + 3 + 4 + 1 + 2 + 3 + 4 + 1 + 2 + 3 + 4 + 

E |-----------------------------------------------------------------|
B |-----------------7-------------------------------3---------------|
F#|-0-0-------0000----------------------------------------------5-5-|
B |---------------------------------3-3-------3333-----3--3---3-----|
    1 + 2 + 3 + 4 + 1 + 2 + 3 + 4 + 1 + 2 + 3 + 4 + 1 + 2 + 3 + 4 + 



    

E |-----------------------------------------------------------------|
B |-----------------7-------------------------------3---------------|
F#|-0-0-------0000--------------------------------------------------|
B |---------------------------------3-3-------3333--------3---3-5-5-|
    1 + 2 + 3 + 4 + 1 + 2 + 3 + 4 + 1 + 2 + 3 + 4 + 1 + 2 + 3 + 4 + 

E |-----------------------------------------------------------------|
B |-----------------7-------------------------------3---------------|
F#|-0-0-------0000--------------------------------------------------|
B |---------------------------------3-3-------3333-----3--3-5-------|
    1 + 2 + 3 + 4 + 1 + 2 + 3 + 4 + 1 + 2 + 3 + 4 + 1 + 2 + 3 + 4 + 

Chorus 0:53
E |-----------------------------------------------------------------|
B |-----------------------------------------------------------------|
F#|-----------------5-5-5-5-2-3-2-3-0-0---0-0-0-0-0---0-2-2-3-3-2-3-|
B |-3-3---3-3-3-3-3-------------------------------------------------|
    1 + 2 + 3 + 4 + 1 + 2 + 3 + 4 + 1 + 2 + 3 + 4 + 1 + 2 + 3 + 4 +

E |-----------------------------------------------------------------|
B |-------------------------------------------------7-7-5-5---------|
F#|-----------------------------5-5-0-0---0-0-0-0-0-----------------|
B |-3-3---3-3-3-3-3-0---0---0-0-----------------------------3---2-2-|
    1 + 2 + 3 + 4 + 1 + 2 + 3 + 4 + 1 + 2 + 3 + 4 + 1 + 2 + 3 + 4 + 

E |-----------------------------------------------------------------|
B |-----------------------------------------------------------------|
F#|---------------3-5-5-5-5-5-5-3-3-0-0-0-0-0-0-0-0-0-0-2-2-3-3-----|
B |-3-3-3-3-3-3-3-----------------------------------------------5-5-|
    1 + 2 + 3 + 4 + 1 + 2 + 3 + 4 + 1 + 2 + 3 + 4 + 1 + 2 + 3 + 4 +

E |-----------------------------------------------------------------|
B |-------------------------------------------------2-2-0-0---------|
F#|-----------------------------5---0-0-0-0-0-0-0-0---------3---2-2-|
B |-3-3-3-3-3-3-3-5-0---0---0-0-------------------------------------|
    1 + 2 + 3 + 4 + 1 + 2 + 3 + 4 + 1 + 2 + 3 + 4 + 1 + 2 + 3 + 4 +

Interlude 1:20
E |-----------------------------------------------------------------|
B |-----------------------------------------------------------------|
F#|---------------------------------0-0-0-0-0-0-0-0-0-0-0-0-0-2-3---|
B |-3-3-3-3-3-3-3-3-0-0-0-0-0-0-0-0-------------------------------5-|
    1 + 2 + 3 + 4 + 1 + 2 + 3 + 4 + 1 + 2 + 3 + 4 + 1 + 2 + 3 + 4 +

Verse 1:26
E |-----------------------------------------------------------------|
B |-----------------7-------------------------------3---------------|
F#|-0-0-------0000--------------------------------------------------|
B |---------------------------------3-3-------3333--------3---3-5-5-|
    1 + 2 + 3 + 4 + 1 + 2 + 3 + 4 + 1 + 2 + 3 + 4 + 1 + 2 + 3 + 4 + 

E |-----------------------------------------------------------------|
B |-----------------7-------------------------------3---------------|
F#|-0-0-------0000------------------------------------------5-------|
B |---------------------------------3-3-------3333-----3--3---------|
    1 + 2 + 3 + 4 + 1 + 2 + 3 + 4 + 1 + 2 + 3 + 4 + 1 + 2 + 3 + 4 + 

E |-----------------------------------------------------------------|
B |-----------------------------------------------------------------|
F#|-00000000000000000000000000000000--------------------------------|
B |---------------------------------33333333333333333333333333335555|
    1 + 2 + 3 + 4 + 1 + 2 + 3 + 4 + 1 + 2 + 3 + 4 + 1 + 2 + 3 + 4 +

E |-----------------------------------------------------------------|
B |-----------------------------------------------------------------|
F#|-00000000000000000000000000000000--------------------------------|
B |---------------------------------33333333333333333-\-------------|
    1 + 2 + 3 + 4 + 1 + 2 + 3 + 4 + 1 + 2 + 3 + 4 + 1 + 2 + 3 + 4 +

Chorus 1:52
E |-----------------------------------------------------------------|
B |-----------------------------------------------------------------|
F#|-----------------5-5-5-5-2-3-2-3-0-0-0-0-0-0-0-0-0-0-2-2-3-3-2-3-|
B |-3-3---3-3-3-3-3-------------------------------------------------|
    1 + 2 + 3 + 4 + 1 + 2 + 3 + 4 + 1 + 2 + 3 + 4 + 1 + 2 + 3 + 4 +

E |-----------------------------------------------------------------|
B |-------------------------------------------------7---5-----------|
F#|-----------------------------5-5-0-0-0-0-0-0-0-0-----------------|
B |-3-3---3-3-3-3-3-0---0---0-0-----------------------------3-3-2-2-|
    1 + 2 + 3 + 4 + 1 + 2 + 3 + 4 + 1 + 2 + 3 + 4 + 1 + 2 + 3 + 4 + 

E |-----------------------------------------------------------------|
B |-----------------------------------------------------------------|
F#|---------------3-5-5-5-5-5-5-3-3-0-0-0-0-0-0-0-0-0-0-2-2-3-3-----|
B |-3-3-3-3-3-3-3-----------------------------------------------5-5-|
    1 + 2 + 3 + 4 + 1 + 2 + 3 + 4 + 1 + 2 + 3 + 4 + 1 + 2 + 3 + 4 +

E |-----------------------------------------------------------------|
B |-------------------------------------------------2-2-0-0---------|
F#|-----------------------------5---0-0-0-0-0-0-0-0---------3-3-2-2-|
B |-3-3-3-3-3-3-3-5-0---0---0-0-------------------------------------|
    1 + 2 + 3 + 4 + 1 + 2 + 3 + 4 + 1 + 2 + 3 + 4 + 1 + 2 + 3 + 4 +

Solo 2:19
E |-----------------------------------------------------------------|
B |-----------------------------------------------------------------|
F#|-3-3-3-3-3-3-3-2-5-5-5-5-5-5-5-5-0-0-0-0-0-0-0-0-----------------|
B |-------------------------------------------------6-6-6-6-6-6-6-6-|
    1 + 2 + 3 + 4 + 1 + 2 + 3 + 4 + 1 + 2 + 3 + 4 + 1 + 2 + 3 + 4 +

E |-----------------------------------------------------------------|
B |-----------------------------------------------------------------|
F#|-3-3-3-3-3-3-3-3-5-5-5-5-5-5-5-5-0-0-0-0-0-0-0-0-0-0-0-0-0-0-0-0-|
B |-----------------------------------------------------------------|
    1 + 2 + 3 + 4 + 1 + 2 + 3 + 4 + 1 + 2 + 3 + 4 + 1 + 2 + 3 + 4 +

E |-----------------------------------------------------------------|
B |-----------------------------------------------------------------|
F#|-3-3-3-3-3-3-3-3-5-5-5-5-5-5-5-5-0-0-0-0-0-0-0-0-----------------|
B |-------------------------------------------------6-6-6-6-6-6-6-6-|
    1 + 2 + 3 + 4 + 1 + 2 + 3 + 4 + 1 + 2 + 3 + 4 + 1 + 2 + 3 + 4 +

E |-----------------------------------------------------------------|
B |-----------------------------------------------------------------|
F#|-3-3-3-3-3-3-3-3-5-5-5-5-5-5-5-5---------------------------------|
B |---------------------------------2-2-2-2-3-3-3-3-5-5-5-5-6-6-6-6-|
    1 + 2 + 3 + 4 + 1 + 2 + 3 + 4 + 1 + 2 + 3 + 4 + 1 + 2 + 3 + 4 +

Break

E |---------------------------------|
B |---------------------------------|
F#|---------------------------------|
B |-------------3-\-\-\-\-\---------|
    1 + 2 + 3 + 4 + 1 + 2 + 3 + 4 + 

Chorus 3:12
E |-----------------------------------------------------------------|
B |-----------------------------------------------------------------|
F#|-----------------5-5-5-5-2-3-2-3-0-0-0-0-0-0-0-0-0-0-2-2-3-3-2-3-|
B |-3-3---3-3-3-3-3-------------------------------------------------|
    1 + 2 + 3 + 4 + 1 + 2 + 3 + 4 + 1 + 2 + 3 + 4 + 1 + 2 + 3 + 4 +

E |-----------------------------------------------------------------|
B |-------------------------------------------------7-7-5-5---------|
F#|-----------------------------5-5-0-0-0-0-0-0-0-0-----------------|
B |-3-3---3-3-3-3-3-0-0-0-0-0-0-----------------------------3-3-2-2-|
    1 + 2 + 3 + 4 + 1 + 2 + 3 + 4 + 1 + 2 + 3 + 4 + 1 + 2 + 3 + 4 + 

E |-----------------------------------------------------------------|
B |-----------------------------------------------------------------|
F#|---------------3-5-5-5-5-5-5-3-3-0-0-0-0-0-0-0-0-0-0-2-2-3-3-----|
B |-3-3-3-3-3-3-3-----------------------------------------------5-5-|
    1 + 2 + 3 + 4 + 1 + 2 + 3 + 4 + 1 + 2 + 3 + 4 + 1 + 2 + 3 + 4 +

E |-----------------------------------------------------------------|
B |-------------------------------------------------2-2-0-0---------|
F#|-----------------------------5---0-0-0-0-0-0-0-0---------3-3-2-2-|
B |-3-3-3-3-3-3-3-5-0-0-0-0-0-0-------------------------------------|
    1 + 2 + 3 + 4 + 1 + 2 + 3 + 4 + 1 + 2 + 3 + 4 + 1 + 2 + 3 + 4 +

Outro Chorus 3:39
E |-------------------------------------------------------------------|
B |o-----------------------------------------------------------------o|
F#|o---------------------------------0-0-0-0-0-0-0-0-0-0-0-0-0-3-3-3-o|x3
B |--3-3-3-3-3-3-3-3-0-0-0-0-0-0-0-0----------------------------------|
     1 + 2 + 3 + 4 + 1 + 2 + 3 + 4 + 1 + 2 + 3 + 4 + 1 + 2 + 3 + 4 + 

E |-------------------------------------------------------------------------|
B |---------------------------------------------------------2-2-------------|
F#|---------------------------------0-0-0-0-0-0-0-0-3-3-5-5-----5-5-0-------|
B |-3-3-3-3-3-3-3-3-0-0-0-0-0-0-0-0-----------------------------------------|
    1 + 2 + 3 + 4 + 1 + 2 + 3 + 4 + 1 + 2 + 3 + 4 + 1 + 2 + 3 + 4 + 
Tabbed by Dave Vucko

View Albums that This Song Appears On...

  • Just Like You

    Genre: Pop/Rock Label: Epitaph Song Duration on Album: 4:20 Album Duration: 44:58

    Release Date: February 24, 2015

    Moods: Urgent, Aggressive, Angst-Ridden, Bittersweet, Boisterous, Bombastic, Brash, Cathartic, Confident, Dramatic, Extroverted, Indulgent, Provocative, Reflective, Rousing, Stylish, Summery

    Styles: Post-Hardcore, Alternative/Indie Rock, Punk-Pop, Screamo

    Themes: Maverick, Reflection, Teenagers

Close panel

Help Rate This Tab by Voting Up or Down

Vote Up Vote Down
Rating: -0 +1

Other Songs Like This

x

Copyright © 2017