Song: Swagger

Band: Flogging Molly

Rating: -1 +1 Views: 178

Flogging Molly - Swagger
Tabbed by Brant

Chord Progression - D, G, D, A, D           (Listen for timing)



    

Main Riff
e|------------------------------------------------------------| 
B|----------------------------3-33-2---------3-33-2-----------| 
G|--------------------2-----2--------4-2----2--------4-2------| 
D|------------000-2-4-----------------------------------------| 
A|--0--2--4---------------------------------------------------| 
E|------------------------------------------------------------| 

Ending 1
e|------------------| 
B|------------------| 
G|--2-4-2-0---------| 
D|---------4-2------| 
A|------------------| 
E|------------------|

Ending 2
e|------------------| 
B|------------------| 
G|--2-4-2-0---------| 
D|---------4-0(hold)| 
A|------------------| 
E|------------------|



    

           Bb        D

Don't know where I'm goin'.

           Bb        G   A

Don't know where I'm go-in, yeah!

Violin Solo
e|--------------------------------------------------------------| 
B|----------------------------10-121212-10-10---10-121212-10----| 
G|---------------------11-----------------9-----------------9---| 
D|----------7-999-11-12--------------------------------------12-| 
A|--------------------------------------------------------------| 
E|--------------------------------------------------------------|

e|-----------------------------| 
B|--10-------------------------| 
G|----12-11-9------------------| 
D|------------12-11-7-9-11-----| 
A|-----------------------------| 
E|-----------------------------| 
 
End (add to riff ending 2)
e|---3-----| 
B|---2-----| 
G|---3-----| 
D|---------| 
A|-0-------| 
E|---------|

Close panel

Help Rate This Tab by Voting Up or Down

Vote Up Vote Down
Rating: -1 +1

Other Songs Like This

x

Copyright © 2018