Song: What Kind Of Man

Band: Florence And The Machine

Rating: -0 +0 Views: 90

Florence + the Machine - What Kind Of Man

Video Lesson: https://www.youtube.com/watch?v=R_y06DkQr70
Tuning: eBGDAE



    

Verse
e||----------------------------------------|
B||----------------------------------------|
G||----------------------------------------|
D||-5-5-----------------5-5------------7-7-|
A||-3-3--7-7--9-9--2-2--3-3--7-7--9-9--5-5-|
E||------5-5--7-7--0-0-------5-5--7-7------|

Chorus

GTR1
e||---------------------------------|
B||---------------------------------|
G||-0-0-0-0-0-0-0-0-0-0-0-0-0-0-0-0-|
D||-0-0-0-0-0-0-0-0-2-2-2-2-2-2-2-2-|
A||-2-2-2-2-2-2-2-2-2-2-2-2-2-2-2-2-|
E||-3-3-3-3-3-3-3-3-0-0-0-0-0-0-0-0-|



    

GTR2
e||----------------------0----------|
B||-----3---0----------------0------|
G||-------------0----------------0--|
D||---------------------------------|
A||---------------------------------|
E||---------------------------------|

GTR1
e||---------------------------------|
B||-3-3-3-3-3-3-3-3-3-3-3-3-3-3-3-3-|
G||-4-4-4-4-4-4-4-4-4-4-4-4-4-4-4-4-|
D||-4-4-4-4-4-4-4-4-4-4-4-4-4-4-4-4-|
A||-2-2-2-2-2-2-2-2-2-2-2-2-2-2-2-2-|
E||---------------------------------|

GTR2
e||-----2-------5-------2---0-------|
B||---------3-------3-----------3---|
G||---------------------------------|
D||---------------------------------|
A||---------------------------------|
E||---------------------------------|

Verse 2
e||-0----0----2----2-|
B||-1----1----3----3-|
G||-0----2----4----2-|
D||-2----2----4----0-|
A||-3----0----2------|
E||------------------|

Outro
e||---------------------------------|
B||---------------------------------|
G||---------------------------------|
D||-5-5-5-5-------------------------|
A||-3-3-3-3-7-7-7-7-9-9-9-9-2-2-2-2-|
E||---------5-5-5-5-7-7-7-7-0-0-0-0-|

e||---------------------------------|
B||---------------------------------|
G||---------------------------------|
D||-5-5-5-5-----------------7-7-7-7-|
A||-3-3-3-3-7-7-7-7-9-9-9-9-5-5-5-5-|
E||---------5-5-5-5-7-7-7-7---------|

Close panel

Help Rate This Tab by Voting Up or Down

Vote Up Vote Down
Rating: -0 +0

Other Songs Like This

x

Copyright © 2017