Song: Miami Bass

Band: Foals

Rating: -1 +1 Views: 92

name: Jacob
e-mail: jacobmier.caerleon@googlemail.com

This is a wicked new track from Foals' new album Total Life Forever.
Dead certain of the chorus/intro part, not so sure if the verse is correct.
Try it out.



    

Intro/Chorus:

G|-------------------------------------------------------------------------|
D|------------------5--5------------7--7-----------------------------------|
A|----7--7----7--7-------------------------5--5----------------------------|
E|------------------------8--8---------------------------------------------|

Verse:



    

G|---------------------------------------------------------------------------|
D|-------------------7-------------------7--------------7--------------------|
A|----5----7----9---------5----7----9---------5----7---------9---------------|
E|---------------------------------------------------------------------------|

G|---------------------------------------------------------------------------|
D|-------------------7-------------------------------------------------------|
A|----5----7----9------------------------------------------------------------|
E|---------------------------------------------------------------------------|

Sounds about right to me. Total Life Forever is an incredible record.

Close panel

Help Rate This Tab by Voting Up or Down

Vote Up Vote Down
Rating: -1 +1

Other Songs Like This

x

Copyright © 2018