Song: Ants Bass

Band: Forgive Durden
Composed By: Jonathan Fishman, Mike Gordon, Page McConnell, Trey Anastasio

Rating: -0 +0 Views: 121



    

																				Intro

3x                         1x
G|------------------------|------------------------------------------------|
D|-------531-1-1----------|------58-58--8-1010101010-----------------------|
A|--3-33------3-3----1----|--3-3-------------------------------------------|
E|-----------------3------|------------------------------------------------|

1x
G|-------------------------------------------------------------------------|
D|-----------------1-1111-1111-1--3-3333-3333-3--5-5555-55555--------------|
A|--3-3333--3333-3---------------------------------------------------------|
E|-------------------------------------------------------------------------|



    


Verse 1

1x                    2nd ending
G|----------------------------------------------|
D|------1--1------------1--1--------------------|
A|--3--3------------3--3------------------------|
E|----------1--13--3--------1--13-3-3-3---------|


Chorus

2x                                    2x
G|-----------------------------------|-----------------------------------|
D|----------11111111-----------------|---------111-1-1-------------------|
A|--33333333-------------------------|--333-3-3--------------------------|
E|------------------11111111-33333333|----------------111-1-1-333-3-3----|

1x
G|------------------|
D|------------------|
A|------------------|
E|-44444444444444---|



Verse 2

1x
G|-------------------------------------------------------------------------|
D|-------------------------------------------------------------------------|
A|--3-3-3-3------------------------65------------------------------------|
E|----------3-3-3-3-1-1-1-1-3-3-3---------------------------------------|

1x
G|-------------------------------------------------------------------------|
D|-------------------------------------------------------------------------|
A|--3-3-3-3---------------------------------------------------------------|
E|----------3-3-3-3-1-1-1-1-3-3------------------------------------------|


Chorus 

2x                                    2x
G|-----------------------------------|-----------------------------------|
D|----------11111111-----------------|---------111-1-1-------------------|
A|--33333333-------------------------|--333-3-3--------------------------|
E|------------------11111111-33333333|----------------111-1-1-333-3-3----|

1x
G|------------------|
D|------------------|
A|------------------|
E|-44444444444444---|


Bridge

2x                                   End On
G|-----------------------------------|----------------|
D|-----------------------------------|----------------|
A|------------------3333333322222222-|2222222222222222|
E|--1111111133333333-----------------|----------------|


Chorus 

2x                                    2x
G|-----------------------------------|-----------------------------------|
D|----------11111111-----------------|---------111-1-1-------------------|
A|--33333333-------------------------|--333-3-3--------------------------|
E|------------------11111111-33333333|----------------111-1-1-333-3-3----|

1x
G|------------------|
D|------------------|
A|------------------|
E|-44444444444444---|


Outro

1x
G|-------------------------------------------------------------------------|
D|-----------6666-999-12---------------------------------------------------|
A|-3333-3333---------------------------------------------------------------|
E|-------------------------------------------------------------------------|

View Just Lyrics...

I am a point in the sky
A star in a constellation
I am all you see
I am Orion's eyes

A towering giant's sight
Me being of mammoth's size
This comes as no surprise

I see all I've created
From my colossus stance
I watch as my investment
Is swarmed by the busy ants

They'll carry ten times their weight
If it means landing the deal
They'll eat what's not on their plate
If it means a full meal

Shine down on us now
Wash our hands clean
Lord knows they're filthy

Blackened with greed
Please be our Savior
Great deity
Well if you can't save us
Can this money?

I see all I've created
From my colossus stance
I watch as my investment
Is swarmed by the busy ants

They'll carry ten times their weight
If it means landing the deal
They'll eat what's not on their plate
If it means a full meal

Few have cut their strings
And risked it all to chase
Their dreams
Most seek the quick buck
The perfect tan
The easy fuck

Pay for their promotion
They stay in line
They please the queen
They wait their turn
Climb the hill
At all costs, avoid the pain

With my titan feet I could
End it with just one step
You cannot dodge agony
If all ten tons of it

Comes stomping
Down on you at once
Like a bullet to the brain
From my monster height
A healthy walk I contemplate

I see all I've created
From my colossus stance
I watch as my investment
Is swarmed by the busy ants

They'll carry ten times their weight
If it means landing the deal
They'll eat what's not on their plate
If it means a full meal

View Albums that This Song Appears On...

  • Wonderland

    Genre: Pop/Rock Label: ADA / Fueled by Ramen Records Song Duration on Album: 3:22 Album Duration: 40:06

    Release Date: May 9, 2006

    Moods: Aggressive, Dramatic, Lively, Provocative, Stylish, Theatrical, Bitter, Outraged, Passionate, Rousing, Confrontational, Tense/Anxious, Cathartic, Earnest, Urgent, Bittersweet, Playful, Eccentric

    Styles: Alternative/Indie Rock, Punk-Pop, Emo

    Themes: Freedom, Reflection, At the Office, Day Driving, Regret

Close panel

Help Rate This Tab by Voting Up or Down

Vote Up Vote Down
Rating: -0 +0

Other Songs Like This

x

Copyright © 2017