Song: Reich N Roll Bass

Band: Forgotten Rebels
Composed By: Mickey de Sadist

Rating: -1 +1 Views: 50

Intro                                                      x2
G------------------------------------------------------------|
D------------------------------------------------------------|
A-------------------------------0--3-3--3-3-3--0--3-3--3-3-3-|
E-0--3-3--3-3-3--0--3-3--3-3-3-------------------------------|

Verse                              x6
G------------------------------------|
D------------------------------------|
A-------------------3-3-3-3----------|
E-3-3-3-3--0-0-0-0-----------0-0-0-0-|



    

Pre-Chorus                      x4
G---------------------------------|
D---------------------------------|
A-0-0-0-0-3-3-3-3-----------------|
E-----------------3-3-3-3-3-3-3-3-|

Chorus                          x4
G---------------------------------|
D---------------------------------|
A-5-5-5-5-5-5-5-5-----------------|
E-----------------3-3-3---5-5-5---|

Intro                                                      x2
G------------------------------------------------------------|
D------------------------------------------------------------|
A-------------------------------0--3-3--3-3-3--0--3-3--3-3-3-|
E-0--3-3--3-3-3--0--3-3--3-3-3-------------------------------|



    

Verse                              x6
G------------------------------------|
D------------------------------------|
A-------------------3-3-3-3----------|
E-3-3-3-3--0-0-0-0-----------0-0-0-0-|

Pre-Chorus                      x4
G---------------------------------|
D---------------------------------|
A-0-0-0-0-3-3-3-3-----------------|
E-----------------3-3-3-3-3-3-3-3-|

Chorus                          x4
G---------------------------------|
D---------------------------------|
A-5-5-5-5-5-5-5-5-----------------|
E-----------------3-3-3---5-5-5---|

Solo                                                       x2
G------------------------------------------------------------|
D------------------------------------------------------------|
A-------------------------------0--3-3--3-3-3--0--3-3--3-3-3-|
E-0--3-3--3-3-3--0--3-3--3-3-3-------------------------------|

Solo Part 2                        x4
G------------------------------------|
D------------------------------------|
A-------------------3-3-3-3----------|
E-3-3-3-3--0-0-0-0-----------0-0-0-0-|

Pre-Chorus                      x4
G---------------------------------|
D---------------------------------|
A-0-0-0-0-3-3-3-3-----------------|
E-----------------3-3-3-3-3-3-3-3-|

Chorus                          x4
G---------------------------------|
D---------------------------------|
A-5-5-5-5-5-5-5-5-----------------|
E-----------------3-3-3---5-5-5---|

View Albums that This Song Appears On...

  • Tomorrow Belongs to Us

    Genre: Pop/Rock Label: Other Peoples Music Song Duration on Album: 3:10 Album Duration: 59:06

    Release Date: February 25, 1997

Close panel

Help Rate This Tab by Voting Up or Down

Vote Up Vote Down
Rating: -1 +1

Other Songs Like This

x

Copyright © 2018