Song: Time To Run Bass

Band: Forgotten Rebels
Composed By: Forgotten Rebels

Rating: -1 +1 Views: 53

"Hey little Girl"
G-------------------------|-------------------------|
D-------------------------|-------------------------|
A---------7-------9-------|---------7-------9-------|
E-7-----------------------|-7-----------------------|

G-------------------------|-------------------------|
D-------------------------|-------------------------|
A---------7-------9-------|---------7-------9-------|
E-7-----------------------|-7-----------------------|



    

"...Hey Lolita"
G------------9---------11-|------------9---------11-|
D----9--------------------|----9--------------------|
A---------7-------9-------|---------7-------9-------|
E-7-----------------------|-7-----------------------|

G------------9---------11-|------------9------------|
D----9--------------------|----9--------------------|
A---------7-------9-------|---------7-------9-------|
E-7-----------------------|-7-----------------------|

"I Just had her back with me...."
G-----------------------------11-9-|-----------------------------11-9-|
D----------------------------------|----------------------------------|
A-----------------7-7-7-7-9-9------|-----------------7-7-7-7-9-9------|
E-7-7-7-7-7-7-7-7------------------|-7-7-7-7-7-7-7-7------------------|



    

"No time for fun..."
G---------11-9-|---------11-9-|---------11-9-|---------11-9-|
D--------------|--------------|--------------|--------------|
A---7-9-9------|---7-9-9------|---7-9-9------|---7-9-9------|
E-7------------|-7------------|-7------------|-7------------|

"Who are you to judge morality..."
G--------6-6-4-4-------------------------|
D----------------6-6-4-4-----6-6-----6-6-|
A-4-4-4-4--------------------------------|
E------------------------4-4-----4-4-----|

G--------6-6-4-4-------------------------|
D----------------6-6-4-4-----6-6-----6-6-|
A-4-4-4-4--------------------------------|
E------------------------4-4-----4-4-----|

"When you're walking..."
G---------11-9-|---------11-9-|---------11-9-|---------11-9-|
D--------------|--------------|--------------|--------------|
A---7-9-9------|---7-9-9------|---7-9-9------|---7-9-9------|
E-7------------|-7------------|-7------------|-7------------|

"Who are you to judge morality..."
G--------6-6-4-4-------------------------|
D----------------6-6-4-4-----6-6-----6-6-|
A-4-4-4-4--------------------------------|
E------------------------4-4-----4-4-----|

G--------6-6-4-4-------------------------|
D----------------6-6-4-4-----6-6-----6-6-|
A-4-4-4-4--------------------------------|
E------------------------4-4-----4-4-----|

"...Look out for the pigs"
G---------11-9-|---------11-9-|---------11-9-|---------11-9-|
D--------------|--------------|--------------|--------------|
A---7-9-9------|---7-9-9------|---7-9-9------|---7-9-9------|
E-7------------|-7------------|-7------------|-7------------|

View Albums that This Song Appears On...

  • Executive Outcomes

    Genre: Pop/Rock Label: Bacchus Archives / Bacchus Song Duration on Album: 1:50 Album Duration: 32:01

    Release Date: August 26, 1997

Close panel

Help Rate This Tab by Voting Up or Down

Vote Up Vote Down
Rating: -1 +1

Other Songs Like This

x

Copyright © 2018