Song: No Beatles Reunion Bass

Band: Forgotten Rebels

Rating: -1 +1 Views: 43

Intro
G-------4---7----7--|-------4---7----7--|
D---5---------------|---5---------------|
A-----2---5---5-----|-----2---5---5-----|
E-3-----------------|-3-----------------|

Verse
G-------4---7----7--|-------4---7----7--|
D---5---------------|---5---------------|
A-----2---5---5-----|-----2---5---5-----|
E-3-----------------|-3-----------------|



    

G-------4---7----7--|-------4---7----7--|
D---5---------------|---5---------------|
A-----2---5---5-----|-----2---5---5-----|
E-3-----------------|-3-----------------|

Verse Part 2("sentimental shit")
G-----------7-7-----5-5-----9----7-|-----------7-7-----5-5-----9----7-|
D---5-5----------------------------|---5-5----------------------------|
A---------5-----5-3-----3-7---5----|---------5-----5-3-----3-7---5----|
E-3-----3--------------------------|-3-----3--------------------------|

Pre-Chorus ("You put them on a phony pedestal and gave them your money")
G-----------55-33--------------------|-----------55-33--------------------|
D-----------------55-33----------5---|-----------------55-33----------5---|
A-2/33-2/33-------------5-5-5-5----5-|-2/33-2/33-------------5-5-5-5----5-|
E------------------------------------|------------------------------------|



    

Chorus ("To hell with the Beatles reunion")
G-----------7-7-----5-5-----9----7-|-----------7-7-----5-5-----9----7-|
D---5-5----------------------------|---5-5----------------------------|
A---------5-----5-3-----3-7---5----|---------5-----5-3-----3-7---5----|
E-3-----3--------------------------|-3-----3--------------------------|

Verse
G-------4---7----7--|-------4---7----7--|
D---5---------------|---5---------------|
A-----2---5---5-----|-----2---5---5-----|
E-3-----------------|-3-----------------|

G-------4---7----7--|-------4---7----7--|
D---5---------------|---5---------------|
A-----2---5---5-----|-----2---5---5-----|
E-3-----------------|-3-----------------|

Verse Part 2 ("sentimental shit")
G-----------7-7-----5-5-----9----7-|-----------7-7-----5-5-----9----7-|
D---5-5----------------------------|---5-5----------------------------|
A---------5-----5-3-----3-7---5----|---------5-----5-3-----3-7---5----|
E-3-----3--------------------------|-3-----3--------------------------|

Pre-Chorus ("You put them on a phony pedestal and gave them your money")
G-----------55-33--------------------|-----------55-33--------------------|
D-----------------55-33----------5---|-----------------55-33----------5---|
A-2/33-2/33-------------5-5-5-5----5-|-2/33-2/33-------------5-5-5-5----5-|
E------------------------------------|------------------------------------|

Chorus ("To hell with the Beatles reunion")
G-----------7-7-----5-5-----9----7-|-----------7-7-----5-5-----9----7-|
D---5-5----------------------------|---5-5----------------------------|
A---------5-----5-3-----3-7---5----|---------5-----5-3-----3-7---5----|
E-3-----3--------------------------|-3-----3--------------------------|

Solo
G-------4---7----7--|-------4---7----7--|
D---5---------------|---5---------------|
A-----2---5---5-----|-----2---5---5-----|
E-3-----------------|-3-----------------|

G-------4---7----7--|-------4---7----7--|
D---5---------------|---5---------------|
A-----2---5---5-----|-----2---5---5-----|
E-3-----------------|-3-----------------|

G-------4---7----7--|-------4---7----7--|
D---5---------------|---5---------------|
A-----2---5---5-----|-----2---5---5-----|
E-3-----------------|-3-----------------|

Verse Part 2 ("sentimental shit")
G-----------7-7-----5-5-----9----7-|-----------7-7-----5-5-----9----7-|
D---5-5----------------------------|---5-5----------------------------|
A---------5-----5-3-----3-7---5----|---------5-----5-3-----3-7---5----|
E-3-----3--------------------------|-3-----3--------------------------|

Pre-Chorus ("You put them on a phony pedestal and gave them your money")
G-----------55-33--------------------|-----------55-33--------------------|
D-----------------55-33----------5---|-----------------55-33----------5---|
A-2/33-2/33-------------5-5-5-5----5-|-2/33-2/33-------------5-5-5-5----5-|
E------------------------------------|------------------------------------|

Chorus ("To hell with the Beatles reunion")
G-----------7-7-----5-5-----9----7-|-----------7-7-----5-5-----9----7-|
D---5-5----------------------------|---5-5----------------------------|
A---------5-----5-3-----3-7---5----|---------5-----5-3-----3-7---5----|
E-3-----3--------------------------|-3-----3--------------------------|

Verse ("we don't smoke the same cigarettes")
G-------4---7----7--|-------4---7----7--|
D---5---------------|---5---------------|
A-----2---5---5-----|-----2---5---5-----|
E-3-----------------|-3-----------------|

G-------4---7----7--|-------4---7----7--|
D---5---------------|---5---------------|
A-----2---5---5-----|-----2---5---5-----|
E-3-----------------|-3-----------------|

Close panel

Help Rate This Tab by Voting Up or Down

Vote Up Vote Down
Rating: -1 +1

Other Songs Like This

x

Copyright © 2018