Song: The Punks Are Alright Bass

Band: Forgotten Rebels
Composed By: Forgotten Rebels

Rating: -1 +1 Views: 45

Verse
G-------------------7-7---------------7-7--------------7-7-----------|
D-----------5---7----------------------------------------------------|
A-5---------------5-----5-----------5-----5----------5-----5---------|
E---------3---5------------3-3-5-5----------3-3-5-5----------3-3-5-5-|

Chorus                                                            x2
G---9---9-----------7-7-------------9---9---------|-----------------|
D---------------------------7---7-----------------|-----7755--------|
A-7---------------5-----5---------7---7-----------|-5-5-------------|
E---------5-5-5-5---------5---5-----------5-5-5-5-|---------5-5-5-5-|



    

Verse
G------------------7--7--------------7-7---------------7-7-----------|
D--------------------------------------------------------------------|
A-4/5-4/5---------5-----5----------5-----5-----------5-----5---------|
E---------3-3-5-5----------3-3-5-5----------3-3-5-5----------3-3-5-5-|

Chorus                                                            x2
G---9---9-----------7-7-------------9---9---------|-----------------|
D---------------------------7---7-----------------|-----7755--------|
A-7---------------5-----5---------7---7-----------|-5-5-------------|
E---------5-5-5-5---------5---5-----------5-5-5-5-|---------5-5-5-5-|

Bridge ("You know I can't help feeling pissed off")
G--------------------------|--------------------------|
D---------7755-------------|---------7755-------------|
A-------------7755------23-|-------------7755---------|
E-5-5-5-5---------3-3--3---|-4/5-4/5---------3-3--3-3-|



    

Verse
G------------------7--7--------------7-7---------------7-7-----------|
D--------------------------------------------------------------------|
A-4/5-4/5---------5-----5----------5-----5-----------5-----5---------|
E---------3-3-5-5----------3-3-5-5----------3-3-5-5----------3-3-5-5-|

Chorus                                                            x3 END
G---9---9-----------7-7-------------9---9---------|-----------------|---|
D---------------------------7---7-----------------|-----7755--------|---|
A-7---------------5-----5---------7---7-----------|-5-5-------------|-5-|
E---------5-5-5-5---------5---5-----------5-5-5-5-|---------5-5-5-5-|---|

View Albums that This Song Appears On...

  • Executive Outcomes

    Genre: Pop/Rock Label: Bacchus Archives / Bacchus Song Duration on Album: 1:46 Album Duration: 32:01

    Release Date: August 26, 1997

Close panel

Help Rate This Tab by Voting Up or Down

Vote Up Vote Down
Rating: -1 +1

Other Songs Like This

x

Copyright © 2018