Song: Youre A Rebel Too Bass

Band: Forgotten Rebels

Rating: -1 +1 Views: 46

Intro (Guitar only)
Bass in at 17 seconds

Verse
G---9---7-----------|---9---7-----------|---9---7-----------|
D-----------7-----3-|-----------7-----3-|-----------7-----3-|
A-7---5-------3-5---|-7---5-------3-5---|-7---5-------3-5---|
E---------5---------|---------5---------|---------5---------|



    

G---9---7-----------|---9---7-----------|---9---7-----------|
D-----------7-----3-|-----------7-----3-|-----------7-----3-|
A-7---5-------3-5---|-7---5-------3-5---|-7---5-------3-5---|
E---------5---------|---------5---------|---------5---------|

Chorus (You... You're A Rebel too...)
G-----9-----7-----5-----4--|-----9-----7-----5-----4--|
D--------------------------|--------------------------|
A-7-7---5-5---3-3---2-2----|-7-7---5-5---3-3---2-2----|
E--------------------------|--------------------------|

G-----9-----7-----5-----4--|-----9-----7-----5-----4--|
D--------------------------|--------------------------|
A-7-7---5-5---3-3---2-2----|-7-7---5-5---3-3---2-2----|
E--------------------------|--------------------------|



    

Verse
G---9---7-----------|---9---7-----------|---9---7-----------|
D-----------7-----3-|-----------7-----3-|-----------7-----3-|
A-7---5-------3-5---|-7---5-------3-5---|-7---5-------3-5---|
E---------5---------|---------5---------|---------5---------|

G---9---7-----------|---9---7-----------|---9---7-----------|
D-----------7-----3-|-----------7-----3-|-----------7-----3-|
A-7---5-------3-5---|-7---5-------3-5---|-7---5-------3-5---|
E---------5---------|---------5---------|---------5---------|

Chorus (You... You're A Rebel too...)
G-----9-----7-----5-----4--|-----9-----7-----5-----4--|
D--------------------------|--------------------------|
A-7-7---5-5---3-3---2-2----|-7-7---5-5---3-3---2-2----|
E--------------------------|--------------------------|

G-----9-----7-----5-----4--|-----9-----7-----5-----4--|
D--------------------------|--------------------------|
A-7-7---5-5---3-3---2-2----|-7-7---5-5---3-3---2-2----|
E--------------------------|--------------------------|

Verse
G---9---7-----------|---9---7-----------|---9---7-----------|
D-----------7-----3-|-----------7-----3-|-----------7-----3-|
A-7---5-------3-5---|-7---5-------3-5---|-7---5-------3-5---|
E---------5---------|---------5---------|---------5---------|

G---9---7-----------|---9---7-----------|---9---7-----------|
D-----------7-----3-|-----------7-----3-|-----------7-----3-|
A-7---5-------3-5---|-7---5-------3-5---|-7---5-------3-5---|
E---------5---------|---------5---------|---------5---------|


Chorus/Outro
G-----9-----7-----5-----4--|-----9-----7-----5-----4--|
D--------------------------|--------------------------|
A-7-7---5-5---3-3---2-2----|-7-7---5-5---3-3---2-2----|
E--------------------------|--------------------------|

G-----9-----7-----5-----4--|-----9-----7-----5-----4--|
D--------------------------|--------------------------|
A-7-7---5-5---3-3---2-2----|-7-7---5-5---3-3---2-2----|
E--------------------------|--------------------------|

G-----9-----7-----5-----4--|-----9-----7-----5-----4--|
D--------------------------|--------------------------|
A-7-7---5-5---3-3---2-2----|-7-7---5-5---3-3---2-2----|
E--------------------------|--------------------------|

G-----9-----7-----5-----4--|-----9-----7-----5-----4--|
D--------------------------|--------------------------|
A-7-7---5-5---3-3---2-2----|-7-7---5-5---3-3---2-2----|
E--------------------------|--------------------------|

Close panel

Help Rate This Tab by Voting Up or Down

Vote Up Vote Down
Rating: -1 +1

Other Songs Like This

x

Copyright © 2018