Song: Rambo

Band: Frankenstein Drag Queens From Planet 13

Rating: -0 +0 Views: 129



    

																				      ----------------------------------------------------------
              Frankenstein drag queens from the planet 13
      ----------------------------------------------------------

Artist:Frankenstein drag queens from the planet 13
Song:Rambo
Tabber:Josh Jackson
Date:5th August 2006

Tuning:standard (EBGDAE)
Key:b=bend
    /=slide



    

Intro:
E-----------------------------------------------------------------|
B-----------------------------------------------------------------|
G-----------------------------------------------------------------|
D-9-9-9-9-9-9-9-9-9-9-9-9-9-9-9/-2-2-2-2-2-2-2-2-4-4-4-4-4-4-4-4/-|
A-9-9-9-9-9-9-9-9-9-9-9-9-9-9-9/-2-2-2-2-2-2-2-2-4-4-4-4-4-4-4-4/-|
E-7-7-7-7-7-7-7-7-7-7-7-7-7-7-7/-0-0-0-0-0-0-0-0-2-2-2-2-2-2-2-2/-|
(play this 3 times)

Intro part2:
E--------------------------------------------------|
B--------------------------------------------------|
G--------------------------------------------------|
D-9-9-9-9-9-9-9-9-9-9-9-9-9-9-9--2-------4---------|
A-9-9-9-9-9-9-9-9-9-9-9-9-9-9-9--2-------4---------|
E-7-7-7-7-7-7-7-7-7-7-7-7-7-7-7--0-------2---------|
(play once)

Verse/Chorus:(play verse twice palm-muted)
E-----------------------------------------------------------------|
B-----------------------------------------------------------------|
G-----------------------------------------------------------------|
D-9-9-9-9-9-9-9-9-9-9-9-9-9-9-9/-2-2-2-2-2-2-2-2-4-4-4-4-4-4-4-4/-|
A-9-9-9-9-9-9-9-9-9-9-9-9-9-9-9/-2-2-2-2-2-2-2-2-4-4-4-4-4-4-4-4/-|
E-7-7-7-7-7-7-7-7-7-7-7-7-7-7-7/-0-0-0-0-0-0-0-0-2-2-2-2-2-2-2-2/-|


Riff1:
(
E---------------------------------------|
B---------------------------------------|
G---------------------------------------|
D-9------9-2---4------------------------|
A---------------------------------------|
E---------------------------------------|

Solo:


E--7---7---7---7---7------------------------|
B--10b-10b-10b-10b-10b---5--------7---------|
G------------------------7b-------9b--------|
D-------------------------------------------|
A-------------------------------------------|
E-------------------------------------------|

Ending:

E--------------7---7---7---7---7--------------------------|
B--------------10b-10b-10b-10b-10b--5----7----------------|
G-----------------------------------7b---9b---------------|
D-9--9-2--4-----------------------------------------------|
A---------------------------------------------------------|
E---------------------------------------------------------|

E------------------------------7-------------|
B-7---7---7---7---7---7---7----10b-----------|
G-9b--9b--9b---9b--9b---9b--9b---------------|
D--------------------------------------------|
A--------------------------------------------|
E--------------------------------------------|


Song order:
intro        x1
intro pt2    x1
chorus       x2
verse        x4
chorus       x1
riff1        x1
verse        x2
chorus       x2
solo         x2
intro        x1
intro pt2    x1
chorus       x2
ending       x1

Close panel

Help Rate This Tab by Voting Up or Down

Vote Up Vote Down
Rating: -0 +0

Other Songs Like This

x

Copyright © 2017