Song: Rock And Roll

Band: Gary Glitter

Rating: -1 +1 Views: 65



    

																				e|--------------------------|-------------------------|
B|--------------------------|-------------------------|
G|--------------------------|-------------------------|
D|--------------------------|-------------------------|
A|--------------------------|-------------------------|
E|---1---1-1---1-1---1-1---1|--1---1-1---1-1---1-1---1| only E is played

e|--------------------------|-------------------------|
B|--------------------------|-------------------------|
G|--------------------------|-------------------------|
D|---1---------1------------|--0-----------------0----|
A|--------------------------|-------------------------|
E|--------------------------|-------------------------|

e|--------------------------|-------------------------|
B|--------------------------|-------------------------|
G|--------------------------|-------------------------|------|
D|--------------------------|--------------0----------|      |
A|-------3------------------|--------3----------------|      |
E|--------------------------|-------------------------|      |--> (x's 2)
                                                             |
e|--------------------------|-------------------------|      |
B|--------------------------|-------------------------|      |
G|--------------------------|-------------------------|------|
D|---1------------------1---|--0-----------------0----|
A|--------------------------|-------------------------|
E|--------------------------|-------------------------|



    

e|--------------------------|-------------------------|
B|--------------------------|-------------------------|
G|--------------------------|-------------------------|
D|---------3--------------3-|--2----------------------|
A|--------------------------|--------3--3---3--3---3-3|
E|--------------------------|-------------------------|

e|---------------------------------------------------------|
B|---------------------------------------------------------|
G|---------------------------------------------------------|
D|--3-----3---1-------------------3----3---1---------------|
A|---------------1--1--1--3--3----------------1--1--1--3--3|
E|---------------------------------------------------------|

e|-------------------------------|
B|-------------------------------|
G|-------------------------------|
D|---3----3---1------------------|
A|------------------1--1--1--3--3|
E|-------------------------------|
So thats how the song goes. Simple but cool.

Close panel

Help Rate This Tab by Voting Up or Down

Vote Up Vote Down
Rating: -1 +1

Other Songs Like This

x

Copyright © 2019