Song: The Answer

Band: Gizmachi
Composed By: Gizmachi

Rating: -1 +1 Views: 42

into riff
e--------------------------------------------|
b--------------------------------------------|
g--------------------------------------------|
d-2--3--2--3-1-0000--2--3--2-3-1--0000-000---|
a-2--3--2--3-1-0000--2--3--2-3-1--0000-000---|
e-2--3--2--3-1-0000--2--3--2-3-1--0000-000---|
                pm
e-----------------------------------|
b-----------------------------------|
g-----------------------------------|
d-1-0-0-1-0-0-1---------------------|
a-1-0-0-1-0-0-1---------------------|
e-1-0-0-1-0-0-1---------------------|

e------------------------------------------------------------------|
b------------------------------------------------------------------|
g------------------------------------------------------------------|
d---9-12-14--17------21--19-19--21--19-19---21---19-19--22---------|
a------------------------------------------------------------------|
e------------------------------------------------------------------|



    


e---------------------------------|
b---------------------------------|
g---------------------------------|
d---14--15--14--15--14--15--12----|
a---14--15--14--15--14--15--12----|
e---14--15--14--15--14--15--12----|

View Albums that This Song Appears On...

  • The Imbuing

    Genre: Pop/Rock Label: Sanctuary / Big Orange Clown/Sanctuary Song Duration on Album: 5:49 Album Duration: 46:06

    Release Date: May 3, 2005

    Moods: Aggressive, Belligerent, Lively, Negative, Strong

    Styles: Heavy Metal, NĂ¼ Metal

Close panel

Help Rate This Tab by Voting Up or Down

Vote Up Vote Down
Rating: -1 +1

Other Songs Like This

x

Copyright © 2017