Song: When One Eight Becomes Two Zeros

Band: Glassjaw
Composed By: Daisy Villa, David Tort, Rafael Van Gerrisheim

Rating: -0 +0 Views: 67



    

																				Artist - GlassJAw
Song   - When One Eight Becomes Two Zeros
Album  - Everything You Ever Wanted To Know About Silence
Tuning - DADGBE
Tabbed by David Diuguid (aka bmskate/DEFreak13)
Date: 01/03/02

pm... = palm mute
^#    = bend (to note of #)
r#    = release bend (to note of #)
s     = slide
/\    = hammer on/off
<#> h = harmonic
(#)   = don't pick the note; slide down/up to that # or start at that # (relative, not approximate)




    

Intro - Guitar 2 [distortion/chorus/tremolo] (0:07) (1:39) (3:37)
"Glad when your near, sad that your here, this is what it's like to be me"
|------------|---------------|------------|------------------|
|----6--5--6-|----6--5--6----|----6--5--6-|----6--5-----5----|
|-7----------|-7-----------5-|-5----------|-7--------5-----5-|
|------------|---------------|------------|------------------|
|------------|---------------|------------|------------------|
|------------|---------------|------------|------------------|


Intro - Guitar 1 [distortion/tremolo] (0:07) (1:39)
"Glad when your near, sad that your here, this is what it's like to be me"
|-0-|
|-3-|
|-2-|
|-0-|
|-0-|
|-0-|


Verse - Guitar 2 [chorus/tremolo] (0:46) (1:52)
"This all hurts me so much, that i honestly believe you're the one this is hard for..."
|---0----
fde
-0-------3-------3---|-----------|
|-6-----6---6---6---6---6---6-|-----------|
|-----5-------5-------5-------|-----------|
|-----------------------------|-0-0---0-0-|<-2nd verse-guitar 1 does this & guitar
|-----------------------------|-0-0---0-0-|  2 hits 0 on the low d string
|-----------------------------|-0-0---0-0-|  with dist/trem/delay/reverb


Chorus - Guitar 1 [distortion/compression] (1:13) (2:20) (3:12)
"Knee deep in static, i hear you breaking up, we're breaking up...
pm.....       .....       ...     .....       .....       ...
|-----------------------------------------------------------------|---------|
|-----------------------------------------------------------------|---------|
|-------3-3-3-------3-3-3-----3-3---------------------------------|-5--5----|
|-0-0-0-3-3-3-0-0-0-3-3-3-0-0-3-3-0-0-0-3-3-3-0-0-0-3-3-3-0-0-3-3-|-5--5--0-|
|-0-0-0-1-1-1-0-0-0-1-1-1-0-0-1-1-0-0-0-3-3-3-0-0-0-3-3-3-0-0-3-3-|-3--3--0-|
|-0-0-0-------0-0-0-------0-0-----0-0-0-------0-0-0-------0-0-----|-3--3--0-|


Chorus - Guitar 2 [distortion/tremolo] (1:13) (2:20) (3:12)
"Knee deep in static, i hear you breaking up, we're breaking up...
|-17-----------17-----------------------------|
|----17-18--------17-18-----15----15----15----|
|----------17-----------17-----17----17----17-|
|---------------------------------------------|
|---------------------------------------------|
|---------------------------------------------|

[distortion]
|-10-------0-------13-------------------|
|----10------10-----------8------9----6-|
|-------10------10----------9/10---10\9-|
|---------------------------------------|
|---------------------------------------|
|---------------------------------------|


Fill (1:38)
|---------------|
|---------------|
|---------------|
|-0-0-0-0-0-0-0-|
|-0-0-0-0-0-0-0-|
|-0-0-0-0-0-0-0-|


Interlude - Guitar 1 [distortion/chorus] (2:46)
"So we're growing, i'm sure, there's no other i can turn to..."
|-7---------7-------------------------|
|-10--------9-------------------------|
|-9---------9-------------------------|
|-7---------7-------------------------|
|-7-(strum)-7-(every once in a while)-|
|-7---------7-------------------------|


Interlude - Guitar 2 [distortion/chorus] (2:46)
"So we're growing, i'm sure, there's no other i can turn to..."
|-7--------------------------10--9---7---------------------12-------|
|-10-(strum)-9--9--9--9-9----10--10--10--7s9--10---10---12----12-10-|
|-9----------11-11-11-9-9-9--9---9---9---7s9-----9----9-------------|
|-------------------------------------------------------------------|
|-------------------------------------------------------------------|
|-------------------------------------------------------------------|

|------------------------------------------------------------|
|----------------------------------------------10------------|
|----------------------11--9----------------9-----9---11-9---|
|-7-9-11-7-9-11-7-9-11--------7-9-11-7-9-11---------7------9-|
|------------------------------------------------------------|
|------------------------------------------------------------|

|----------------------------------------------------------|
|----------------------------------------------------------|
|-------------------------10-----10-----9-----10-----9-----|
|---------------9--11--9-----9------9-----9------9-----9---|
|-7-9-11-7-9-11----------------7------7-----7------7-----7-|
|----------------------------------------------------------|


Comments	*such an emotional song
		*diff version appears on monster zero demo
		*song daryl dedicated to nona

If you have any questions or comments, contact me via e-mail bmskate@hotmail.com or on Instant Messenger 
DEFreak13

View Just Lyrics...

I'm glad that you're near
And I'm sad that you're here.
That is what it's like to be me.
I'm glad that you're here
And I'm sad that you're near.
This is what it's like to die alone.

This all hurts so much
That I honestly believe
You're the one this is hard for.
I'm bartered tact for wit
And I've already made up
A billion stories about you.

Knee deep in static
I hear you breaking up,
I'm breaking up,
I guess we're breaking up.
You're not the other woman
You're just another (woman).
Another hobby for a guy like me.

You're given me a heart like a gun
And I'm so shocked that I've made it through these billion days.
I didn't think I could tough it out all those days a billion.

So we're growing?
I'm sure.
"There's no other I can turn to,
There's no other I can turn to
If not you, heart
Who else can I believe?"

I hope you enjoy dying alone.

View Albums that This Song Appears On...

  • Everything You Ever Wanted to Know About Silence

    Genre: Pop/Rock Label: Roadrunner Records Album Duration: 51:42

    Release Date: May 9, 2000

    Moods: Fierce

    Styles: Alternative/Indie Rock, Screamo, Alternative Metal, Emo, Heavy Metal

Close panel

Help Rate This Tab by Voting Up or Down

Vote Up Vote Down
Rating: -0 +0

Other Songs Like This

x

Copyright © 2017