Song: Love And Let Love Bass

Band: Gossip

Rating: -0 +0 Views: 49



    

																				LOVE AND LET LOVE - Gossip
Tabbed By: CSC      Tuning: EADG

Verse (0:07)
G|------------------------------------|
D|------1---------------1-------------| x3
A|--3-3----555------3-3----555-----1--|
E|------------6---------------6--3----|

Chorus (0:30)
G|--------------------------------------------------------|
D|--------1-1-1--------3-3-3----------1-1-1--------3-3-3--|
A|--3-3-3---------11-1----------3-3-3---------11-1--------|
E|--------------------------------------------------------|



    

G|--------------------------------------------------------|
D|--------1-1-1--------3-3-3----------1-1-1--------3------|
A|--3-3-3---------11-1----------3-3-3---------11-1-----1--|
E|---------------------------------------------------3----|

Verse x3 (0:45)
Chorus   (1:08)
Verse x3 (1:23)
Chorus   (1:46)
Verse x2 (2:01)

Bridge (2:16)
G|----------------------------------|
D|----------0-0-0>--1-1-1-1-3-3-3>--| x3
A|--3>-3-3--------------------------|
E|----------------------------------|

Outro 1 (2:38)
G|--------------------------------------------------------|
D|--------1-1-1--------3-3-3----------1-1-1--------3-3-3--| x5
A|--3-3-3---------11-1----------3-3-3---------11-1--------|
E|--------------------------------------------------------|

Outro 2
G|----------------------------------------------------------|
D|--------1-1-1--------3-3-3----------1-1-1--------3--------|
A|--3-3-3---------11-1----------3-3-3---------11-1-----1-3--|
E|---------------------------------------------------3------|

Close panel

Help Rate This Tab by Voting Up or Down

Vote Up Vote Down
Rating: -0 +0

Other Songs Like This

x

Copyright © 2017