Song: We Go Together Bass

Band: Grease

Rating: -0 +0 Views: 189



    

																				Artist:    Grease
Song:      We Go Together
Tabbed by: Ian Schram (Pure-poison)

Intro:
|---2-5-|-------|-3-7-10-|-5-7-5-|---4-7-|-------|-5-9-12-|-7-9-7-|
|-3-----|---3-7-|--------|-------|-5-----|---5-9-|--------|-------|
|-------|-5-----|--------|-------|-------|-7-----|--------|-------|
|-------|-------|--------|-------|-------|-------|--------|-------|

Verse 1:
We go together...it should be, Wahoo yeah!
*3*Play three times*3*
|---4-7-|-------|-5-9-12-|-7-9-7-|
|-5-----|---5-9-|--------|-------|
|-------|-7-----|--------|-------|
|-------|-------|--------|-------|



    

|---4-7-|-------|-5-9-12-|-10-8-7-5-|
|-5-----|---5-9-|--------|----------|
|-------|-7-----|--------|----------|
|-------|-------|--------|----------|

Verse 2:
We're one of a kind...be like one, wa wa wa one!
*3*Play three times*3*
|---4-7-|-------|-5-9-12-|-7-9-7-|
|-5-----|---5-9-|--------|-------|
|-------|-7-----|--------|-------|
|-------|-------|--------|-------|

|---4-7-|-------|---4-7--|-----4-|
|-5-----|-------|-5------|-5-7---|
|-------|-7-7-7-|--------|-------|
|-------|-------|--------|-------|

"When we go out...it might be love"
|-5-9-13-15-13-9-|-5-9-13-15-13-9-|
|----------------|----------------|
|----------------|----------------|
|----------------|----------------|

|---4-7-9-7-4-|---4-7-9-7-4-|
|-5-----------|-5-----------|
|-------------|-------------|
|-------------|-------------|

|-5-9-13-15-13-9-|-5-9-13-15-13-9-|
|----------------|----------------|
|----------------|----------------|
|----------------|----------------|

|---6-9-11-9-6-|-7------------|
|-7------------|--------------|
|--------------|--------------|
|--------------|--------------|





Ramalamalama...A Whap Bam Boom!
*12*Play twelve times*12*
|-5---5-5-4-|-2---2-2-4-|
|---5-------|---2-------|
|-----------|-----------|
|-----------|-----------|

|-0-----|-------|
|-------|-0-2-4-|
|-------|-------|
|-------|-------|

Verse 3
We're for each other...together Wahoo yeah!
*4*Play four times*4*
|---4-7-|-------|-5-9-12-|-7-----|
|-5-----|---5-9-|--------|-------|
|-------|-7-----|--------|---7-9-|
|-------|-------|--------|-------|

Outro:
We'll always be together...
*5*Play five times*5*
|---4-7-|-------|-5-9-12-|-7-----|
|-5-----|---5-9-|--------|-------|
|-------|-7-----|--------|---7-9-|
|-------|-------|--------|-------|

|-0-----|
|-------|
|-------|
|-------|

Close panel

Help Rate This Tab by Voting Up or Down

Vote Up Vote Down
Rating: -0 +0

Other Songs Like This

x

Copyright © 2017