Song: A Fest

Band: Gsindl

Rating: -1 +1 Views: 125



    

																				Gsindl, A Fest

Intro / Bridge 1:

E|-----------1------2-------0--0-|
H|-----------0--------3--------1-|
G|-----------0----2---------0--0-|
D|--------------0--------------2-|
A|------------------------2----3-|
E|-0-2-3-4-3---------------------|



    

E|-----------1------2-------#-----------------|
H|-----------0--------3-----#-----1-----------|
G|-----------0----2---------#---0---0-----0---|
D|--------------0-----------#-2---------2---2-|
A|-----------------------3--#---------3-------|
E|-0-2-3-4-3----------------#-----------------|
(# = Break)

Verse 1:
            G           D      Em                            C

I bin scho tagelang so fiebrig, i hobs scho so lang nimma gspiad,
               G              D            C

Wos auf so na richtig geilen Party ois passiert.
     G                  D      Em                  C

I gfrei mi auf Spaghetti Tr

Close panel

Help Rate This Tab by Voting Up or Down

Vote Up Vote Down
Rating: -1 +1

Other Songs Like This

x

Copyright © 2019