Song: Amen

Band: Halestorm
Composed By: Traditional

Rating: -0 +0 Views: 200

Halestorm - Amen
Drop D
By DaveMustaine7

Key
PM = palm mute
v = vibrato
b = bend
p = pull-off
X = palm muted dead note



    

Intro (0:00)
e|--------------------------------------------------|
b|--------------------------------------------------|
g|--------------------------------------------------|
D|--------------------------------------------------|
A|7-9-10--------------------------------------------|
D|--------------------------------------------------| x3
PM------|


(0:05)
e|--------------------------------------------------|
b|--------------------------------------------------|
g|--------------------------------------------------|
D|-----7--------------------------------------------|
A|10-7---7------------------------------------------|
D|--------------------------------------------------|
PM--------|



    

(0:06)
e|--------------------------------------------------|
b|--------------------------------------------------|
g|--------------------------------------------------|
D|----5-----5---------------------------------------|
A|5-7---5-7---5-7-----------------------------------|
D|--------------------------------------------------|
PM---------------|

(0:10)
e|--------------------------------------------------|
b|--------------------------------------------------|
g|--------------------------------------------------|
D|55-55---------------------------------------------|
A|--------------------------------------------------|
D|--------------------------------------------------|

Verse 1 (0:12)
e|--------------------------------------------------|
b|--------------------------------------------------|
g|--------------------------------------------------|
D|--------------------------------------------------|
A|7-9-10--------------------------------------------|
D|--------------------------------------------------| x3
PM------|

(0:17)
e|--------------------------------------------------|
b|--------------------------------------------------|
g|--------------------------------------------------|
D|-----7--------------------------------------------|
A|10-7---7------------------------------------------|
D|--------------------------------------------------|
PM--------|

(0:19)
e|--------------------------------------------------|
b|--------------------------------------------------|
g|--------------------------------------------------|
D|----5---------------------------------------------|
A|5-7---5-7-----------------------------------------|
D|--------------------------------------------------|
PM---------------|

(0:21)
e|--------------------------------------------------|
b|--------------------------------------------------|
g|--------------------------------------------------|
D|----5-55---7--------------------------------------|
A|5-7------7---7------------------------------------|
D|--------------------------------------------------|
PM---------------|

(0:24)
e|--------------------------------------------------|
b|--------------------------------------------------|
g|--------------------------------------------------|
D|--------------------------------------------------|
A|7-9-10--------------------------------------------|
D|--------------------------------------------------| x2
PM------|

(0:28)
e|--------------------------------------------------|
b|--------------------------------------------------|
g|--------------------------------------------------|
D|5---7---------------------------------------------|
A|--7---7-------------------------------------------|
D|--------------------------------------------------|
PM-----------|

(0:30)
e|--------------------------------------------------|
b|--------------------------------------------------|
g|--------------------------------------------------|
D|--------------------------------------------------|
A|7-9-10--------------------------------------------|
D|--------------------------------------------------| x2
PM------|

(0:33)
e|--------------------------------------------------|
b|--------------------------------------------------|
g|--------------------------------------------------|
D|----5-55---7--------------------------------------|
A|5-7------7---7------------------------------------|
D|--------------------------------------------------|
PM---------------|

(0:36) [dead notes if you want to be fancy]
e|--------------------------------------------------|
b|--------------------------------------------------|
g|--------------------------------------------------|
D|--------------------7------X-XXXX-----------------|
A|7-9-10--7-9-10--5-7--------X-XXXX-----------------|
D|---------------------------X-XXXX-----------------|
PM---------------------|

Chorus 1 [play twice] (0:42)(0:54)
e|--------------------------------------------------|
b|--------------------------------------------------|
g|--------------------------------------------------|
D|--------------------------------------------------|
A|2-2--2-2--2-0-2-4-5-4-2-0-------------------------|
D|2-2--2-2--2-0-2-4-5-4-2-0-------------------------|

(0:48)(1:00)
e|--------------------------------------------------|
b|--------------------------------------------------|
g|5-5--5-5--2-2------2------------------------------|
D|5-5--5-5--2-2------2------------------------------|
A|3-3--3-3--0-0--5-2-0-2----------------------------|
D|---------------5-2---2----------------------------|

Fill 1 [dead notes to beat of song] (1:06)
e|--------------------------------------------------|
b|--------------------------------------------------|
g|--------------------------------------------------|
D|XXXX-XXXX-X-X-------------------------------------|
A|XXXX-XXXX-X-X-------------------------------------|
D|XXXX-XXXX-X-X-------------------------------------| X2

verse 2[shorter] (1:12)
e|--------------------------------------------------|
b|--------------------------------------------------|
g|--------------------------------------------------|
D|--------------------------------------------------|
A|7-9-10--------------------------------------------|
D|--------------------------------------------------| x3
PM------|

(1:17)
e|--------------------------------------------------|
b|--------------------------------------------------|
g|--------------------------------------------------|
D|-----7--------------------------------------------|
A|10-7---7------------------------------------------|
D|--------------------------------------------------|
PM--------|

(1:18)
e|--------------------------------------------------|
b|--------------------------------------------------|
g|--------------------------------------------------|
D|----5---------------------------------------------|
A|5-7---5-7-----------------------------------------|
D|--------------------------------------------------|
PM---------------|

(1:21)
e|--------------------------------------------------|
b|--------------------------------------------------|
g|--------------------------------------------------|
D|----5-55---7--------------------------------------|
A|5-7------7---7------------------------------------|
D|--------------------------------------------------|
PM---------------|

(1:24) [dead notes if you want to be fancy]
e|--------------------------------------------------|
b|--------------------------------------------------|
g|--------------------------------------------------|
D|--------------------7------X-XXXX-----------------|
A|7-9-10--7-9-10--5-7--------X-XXXX-----------------|
D|---------------------------X-XXXX-----------------|
PM---------------------|

Chorus 2 [play twice] (1:30)(1:42)
e|--------------------------------------------------|
b|--------------------------------------------------|
g|--------------------------------------------------|
D|--------------------------------------------------|
A|2-2--2-2--2-0-2-4-5-4-2-0-------------------------|
D|2-2--2-2--2-0-2-4-5-4-2-0-------------------------|

(1:36)(1:48)
e|--------------------------------------------------|
b|--------------------------------------------------|
g|5-5--5-5--2-2------2------------------------------|
D|5-5--5-5--2-2------2------------------------------|
A|3-3--3-3--0-0--5-2-0-2----------------------------|
D|---------------5-2---2----------------------------|

Fill 2 [dead notes to beat of song] (1:54)
e|--------------------------------------------------|
b|--------------------------------------------------|
g|--------------------------------------------------|
D|XXXX-XXXX-X-X-------------------------------------|
A|XXXX-XXXX-X-X-------------------------------------|
D|XXXX-XXXX-X-X-------------------------------------| X2

Solo[Rhythm] (2:00)
e|--------------------------------------------------|
b|--------------------------------------------------|
g|-------------------2------------------------------|
D|-------------------2------------------------------|
A|2-2--2-2--2-2--5-2-0-2----------------------------|
D|2-2--2-2--2-2--5-2---2----------------------------|

(2:06) [let last power chord ring longer]
e|--------------------------------------------------|
b|--------------------------------------------------|
g|-------------------------2-2-2-2-2-2-2-2-2()------|
D|-------------------------2-2-2-2-2-2-2-2-2()------|
A|2-----2-----2-----2------0-0-0-0-0-0-0-0-0()------|
D|2-2-2-2-2-2-2-2-2-2-2-2---------------------------|
    PM-   PM-   PM-   PM-

Solo[Lead] (2:00)
e|--------------------------------------------------|
b|10b10b-12b-13b-15b--15b15b-15p12------15p12-------|
g|---------------------------------1414v------1414v-|
D|--------------------------------------------------|
A|--------------------------------------------------|
D|--------------------------------------------------|

e|--------------------------------------------------|
b|--------------------------------------------------|
g|14p12---------------------------------------------|
D|------1414b14v------------------------------------|
A|--------------------------------------------------|
D|--------------------------------------------------|

(2:09)
e|--------------------------------------------------|
b|15p12--17p12--------------------------------------|
g|-----14-----14------------------------------------|
D|--------------------------------------------------|
A|--------------------------------------------------|
D|--------------------------------------------------| x2

(2:11)
e|17b---15-12-15-12v--15-12-15-12v--15-12-15-12v----|
b|--------------------------------------------------|
g|--------------------------------------------------|
D|--------------------------------------------------|
A|--------------------------------------------------|
D|--------------------------------------------------|

e|15-12-17b-----------------------------------------|
b|--------------------------------------------------|
g|--------------------------------------------------|
D|--------------------------------------------------|
A|--------------------------------------------------|
D|--------------------------------------------------|

Chorus 3 [play three times] (2:20)(2:32)(2:44)
e|--------------------------------------------------|
b|--------------------------------------------------|
g|--------------------------------------------------|
D|--------------------------------------------------|
A|2-2--2-2--2-0-2-4-5-4-2-0-------------------------|
D|2-2--2-2--2-0-2-4-5-4-2-0-------------------------|

(2:26)(2:38)(2:50)
e|--------------------------------------------------|
b|--------------------------------------------------|
g|5-5--5-5--2-2------2------------------------------|
D|5-5--5-5--2-2------2------------------------------|
A|3-3--3-3--0-0--5-2-0-2----------------------------|
D|---------------5-2---2----------------------------|

Ending (2:56)
e|--------------------------------------------------|
b|--------------------------------------------------|
g|--------------------------------------------------|
D|--------------------------------------------------|
A|2-2-----------------------------------------------|
D|2-2-----------------------------------------------|



////////Joe Hottinger Lead Stuff/////////
He starts adding this bend during the 2nd chorus (1:43)
and will continue to use it in the 3rd chorus
e|--------------------------------------------------|
b|--------------------------------------------------|
g|--------------------------------------------------|
D|--------------------------------------------------|
A|2-2-5b-2-2-5b-------------------------------------|
D|2-2----2-2----------------------------------------|

View Albums that This Song Appears On...

  • Into the Wild Life

    Genre: Pop/Rock Label: Atlantic Album Duration: 49:31

    Release Date: April 14, 2015

    Moods: Rousing, Swaggering, Angry, Confident, Intense, Nocturnal, Visceral, Yearning, Aggressive, Dark, Gutsy, Angst-Ridden, Autumnal, Menacing, Sexy, Theatrical, Hostile

    Styles: Alternative Metal, Hard Rock, Heavy Metal

    Themes: Night Driving, Rainy Day, Feeling Blue, Motivation, Partying, Victory

Close panel

Help Rate This Tab by Voting Up or Down

Vote Up Vote Down
Rating: -0 +0

Other Songs Like This

x

Copyright © 2017